Cheap Sex - Back Stabber Chords & Tabs

 

Back Stabber Chords & Tabs

Cheap Sex Chords & Tabs

Version: 1 Type: Tab 0 ratings
1 star 2 stars 3 stars 4 stars 5 stars
comments

Back Stabber Tab

Cheap Sex - Back Stabber 

NOTES: rb = Release bend to original note

There are some chords that you play on the 2nd time of repeating the chorus that I
couldn't quite figure out. If you just repeat what I wrote here for the chorus you
shouldn't be able to tell the difference. 

Intro
E|--------------------------------------------|
B|--------------------------------------------|
G|---------------------------------7-7-9-7----| PLAY SEVEN TIMES
D|--9-9999129-799999129799999129--7-7-9-7----| 
A|--9-9999129-799999129-799999129--5-5-7-5----|
E|--7-7777107-577777107-577777107-------------| 

Chorus:
E|--------------------------------------------|
B|--------------------------------------------|
G|--9-7-9--9-7-9--9-7-9--11111111111111-------| PLAY TWO TIMES
D|--9-7-9--9-7-9--9-7-9--11111111111111-------|
A|--75-7--7-5-7--7-5-7--9-9-9-9-9-9-9--------|
E|--------------------------------------------|

E|--------------------------------------------|
B|--------------------------------------------|
G|---------------------------------7-7-9-7----| PLAY FOUR TIMES
D|--9-9999129-799999129799999129--7-7-9-7----| 
A|--9-9999129-799999129-799999129--5-5-7-5----|
E|--7-7777107-577777107-577777107-------------|
[ Tab from: http://www.guitartabs.cc/tabs/c/cheap_sex/back_stabber_tab.html ]
E|--------------------------------------------|
B|--------------------------------------------|
G|--9-7-9--9-7-9--9-7-9--11111111111111-------| PLAY TWO TIMES
D|--9-7-9--9-7-9--9-7-9--11111111111111-------| 
A|--75-7--7-5-7--7-5-7--9-9-9-9-9-9-9--------|
E|--------------------------------------------|

Bridge: 
E|----------------------------------------|
B|----------------------------------------|
G|---9b11----------9b11---------11rb9~---|
D|----------------------------------------|
A|----------------------------------------|
E|----------------------------------------|

Guitar II Bridge:
E|----------------------------------------|          
B|----------------------------------------|
G|--------7-7-9-7----------7-7-9-7--------|
D|--------7-7-9-7-9--------7-7-9-7-9------|
A|--------5-5-7-5-9--------5-5-7-5-9------|
E|----------------7----------------7------|


E|--------------------------------------------|
B|--------------------------------------------|
G|---------------------------------7-7-9-7----| PLAY FOUR TIMES
D|--9-9999129-799999129799999129--7-7-9-7----|
A|--9-9999129-799999129-799999129--5-5-7-5----|
E|--7-7777107-577777107-577777107-------------|


E|--------------------------------------------|
B|--------------------------------------------|
G|--9-7-9--9-7-9--9-7-9--11111111111111-------| PLAY TWO TIMES
D|--9-7-9--9-7-9--9-7-9--11111111111111-------| 
A|--75-7--7-5-7--7-5-7--9-9-9-9-9-9-9--------|
E|--------------------------------------------|

E|---------|
B|-End on:-|
G|---------|
D|--9------|
A|--9------|
E|--7------|
Comments