Chavez - The Guard Attacks Chords & Tabs

 

The Guard Attacks Chords & Tabs

Chavez Chords & Tabs

Version: 1 Type: Chords 0 ratings
1 star 2 stars 3 stars 4 stars 5 stars
comments

The Guard Attacks Chords

   
#----------------------------------PLEASE NOTE---------------------------------#
#This file is the author's own work and represents their interpretation of the #
#song. You may only use this file for private study, scholarship, or research. #
#------------------------------------------------------------------------------#
#

Date: Tue, 20 Jan 1998 21:49:57 -0600 (CST)
From: "Michael L. Heuer" 
To: guitar@olga.net
Subject: TAB: /c/chavez/the_guard_attacks.tab (fwd)

artist:  Chavez
album:   Ride the Fader
song:    The Guard Attacks

I think you have to rip a hole in your amp and kick it a few times to get
the right "Chavez" tone .. it's that typical Matador records thing.

intro riff:

(gtr 1, somewhat muted)
e ---------------------------------|-------------------------------|
B ---------------------------------|-------------------------------|
G ---------------------------------|-------------------------------|
D ---4---4-2--4-2--4---4-2---------|--4---4-2--4-2--4---4-2--0--0--|
A ---0---0-0--0-0--0---0-0--3-2-0--|--0---0-0--0-0--0---0-0--------|
E ---------------------------------|-------------------------3--3--|

(gtr 2, tremelo picked)
D -----2/9=================================================--------|

verse:
(gtr 1 riff continues)
[ Tab from: http://www.guitartabs.cc/tabs/c/chavez/the_guard_attacks_crd.html ]
G (strum once, let ring)
Filing through the gates the doorman takes your chinese star
G
Hiding in the stacks the guard attacks and nails you hard
G
Chattering in these excited states
Your uncertian age gives me

chorus:

        Em7 (gtr 1 rides Em7(VII) through the chorus)
.. the shakes

              G           Em7
Sell me the taste in the case
         C/G             A
That my heart can only kill me
              G
Make this go fast
                     D      G (gtr 1 riff)
I want it now .. I want it now


chorus:
            Em7
.. excited states

              G           Em7
Sell me the taste in the case
         C/G             A
That my heart can only kill me
              G
Make this go fast

I want it now .. there's damage to report


bridge:

e ---7----------------8----------------------|
B ---8----------------8----------------------|
G ---7----------------7----------------------|
D ---0----------------0----------------------|

     Hiding in the stacks the guard attacks
     Hiding in the stacks the guard attacks


(gtr 1 riff)

end on E/G:  (3x0000) let feedback


c1996 Fist of Tarver, All Time Lo
Comments