Chava Alberstein - Margaritkelech Chords & Tabs

 

Margaritkelech Chords & Tabs

Chava Alberstein Chords & Tabs

Version: 1 Type: Tab 0 ratings
1 star 2 stars 3 stars 4 stars 5 stars
comments

Margaritkelech Tab

   
-------------------------------------------------------------------------------
                             MARGARITKELEKH - Chava Alberstein
-------------------------------------------------------------------------------
Tabbed by: Jeremy Lavine
Tuning: Standard with capo on 3rd fret

From the Chava Alberstein's album "Yiddish Songs".

Opening:
   Em          G           B7          Em          D           C
e|-0-----0-----3-----3---------2-----2-----0-----0-----2-----2-----0-----0-|
B|-----0-----0-----3---3-----0-----0-----0-----0-----3-----3-----1-----1---|
G|---0-----0-----0-------0-------2-----------0-----------2-----------0-----|
D|-------------------------------------------------0-----------------------|
A|-------------------------2-----------------------------------3-----------|
E|-0-----------3-----------------------0-----------------------------------|

    B7                     D           C           B7
e|-----2-----2-----------------2-----2-----0-----0-----2-----2-------------|
B|---0-----0-----------------3-----3-----1-----1-----0-----0---------------|
G|-------2-----------------------2-----------0-----------2-----------------|
D|-------------------------0-----------------------------------------------|
A|-2-----------2-3-2-0-----------------3-----------2-----------2-3-2-0-----|
E|---------------------3-2---------------------------------------------3-2-|

   Em          Am          Em          C           B7
e|-----0-----0-----0-----0-----0-----0-----0-----0-----2-----2-------------|
B|---0-----0-----1-----1-----0-----0-----1-----1-----0-----0---------------|
G|-------0-----------2-----------0-----------0-----------2-----------------|
D|-------------------------------------------------------------------------|
A|-------------0-----------------------3-----------2-----------2-3-2-0-----|
E|-0-----------------------0-------------------------------------------3-2-|

   Em          B7           Em          B7
e|-----0-----0-----2-----2------0-----0-----2-----2-|
B|---0-----0-----0-----0------0-----0-----0-----0---|
G|-------0-----------2------------0-----------2-----|
D|--------------------------------------------------|
A|-------------2------------------------2-----------|
E|-0------------------------0-----------------------|



Vocal:
   Em          G           B7          Em          D           C
e|-----0-----0-----3-----3-----2-----2-----0-----0-------2-----------0-----|
B|---0-----0-----3-----3-----0-----0-----0-----0-------3---3-------1---1---|
G|---------------------------------------------------2-------2---0-------0-|
D|-------------------0-----------1-----------------0-----------------------|
A|-------2-----------------2-----------------2-----------------3-----------|
E|-0-----------3-----------------------0-----------------------------------|
[ Tab from: http://www.guitartabs.cc/tabs/c/chava_alberstein/margaritkelech_tab.html ]
   B7                      Em          Am          Em          C
e|-------2-----------2---------0-----0-----0-----0-----0-----0-----0-----0-|
B|-----0---0-------0---0-----0-----0-----1-----1-----0-----0-----1-----1---|
G|---2-------2---2-------2-------------------------------------------------|
D|-------------1-----------------------------2-----------------------2-----|
A|-2-----------------------------2-----0-----------------2-----3-----------|
E|-------------------------0-----------------------0-----------------------|


   Em          B7          Em          G           B7
e|-----0-----0-----2-----2-------0---------3-----3-----2-----2-------2-----|
B|---0-----0-----0-----0-------0---0-----3-----3-----0-----0-------0---0---|
G|---------------------------0-------0-------0-----------2-------2-------2-|
D|-------------------1-----------------------------------------1-----------|
A|-------2-----2-----------------------------------2-----------------------|
E|-0-----------------------0-----------3-----------------------------------|

Lyrics:
1.
    [Em]       [G]        [B7]     [Em]
in veldl baym taykhl dort zaynen gevaksn
     [D]        [C]      [B7]
margaritkelekh elent un kleyn
    [Em]     [Am]      [Em]     [C]
vi kleyninke zunen mit vaysinke shtralen
    [Em]     [B7]      [Em] [G] [B7x2]
mit vaysinke tra la la la.

2.
gegangen is khavele shtil un farholemt
tzelozn di gold blonde tzep
dos heldzl antbloyzt un gemurmelt farkholemt
a lidele tra la la la.

3.
do kumt ir antkegn a bokher a shvartzer
mit lokn mit shvartze vi pekh
er flamt mit di oygen un entfert ir lustik
un entfert ir tra la la la.

4.
vos zukhstu do meydl vos hostu farloren?
vos vilstu gefinen in groz?
ikh zukh margaritkes farroytlt zikh khave
farroytlt zikh tra la la la.

5.
du zukhst nokh? un ikh hob shoyn take gefunen
di shenste margaritke in vald
a margaritke mit tzep un mit oygn safiren
mit eygelekh tra lalala

6.
ikh hob shoyn margaritkes ikh hob nor fargesn
ikh zukh do nisht vayt iz a kval.
der kval iz farshlyoshet on mir blaybstu durshtik
baym kvelkhele. tra la la la.

7.
ikh vil gornisht trinken ikh zukh zikh a shotns
di zun bakt arayn azoy heys...
mayne hor zaynen shvartser un kiler vi shotns
in veldele. tra la la la

8.
o loz mikh, me tor nisht di mame zogt men tor nisht
mayn mame iz alt un iz beyz
vu mame? vos mame? do zaynen nor beymer,
nor beymelekh. tra la la la.

9.
men zet  keyner zet nisht,  men hert  keyner hert nisht.
dos veldl iz blind un gedikht,
umarem mikh, zise, du zest,ikh bin ruyik,
ikh kush dikh nor. tra la la la.

10.
du libst mikh? ikh lib dikh. du shemst zikh? ikh shem zikh.
to lib mikh, un shem zikh, un shvayg.
un ze vi es mishn zikh pekhshvartse kroyzn,
mit goldene. tra la la la.

11.
di zun is fargangen, der bokher farshvunden,
un khavele zitzt nokh in vald.
zi kukt in der vaytens un murmelt farkholemt
dos lidele. tra la la la la.
Comments