Charlie Daniels Band - The Devil Went Down To Georgia Chords & Tabs

 

Charlie Daniels Band Chords & Tabs

Version: 1 Type: Tab 0 ratings
1 star 2 stars 3 stars 4 stars 5 stars
comments

The Devil Went Down To Georgia Tab

   
-------------------------------------------------------------------------------
			     "The Devil Went Down to Georgia" - Charlie Daniels Band
-------------------------------------------------------------------------------
Tabbed by: Adam St. John
Email: adamsaintjohn@hotmail.com

Tuning: Regular (E-A-D-G-B-e)

NOTES: This is the what the Violin/Fiddle plays in this song, but it has been
tabbed for a regular tuned guitar. If any of the notes sound wrong or out of key
this is because the violin/fiddle in the recording played it wrong or went out
of key (it is very easy to slide out of key on such an instrument because there
are no frets). This is EXACTLY what the violin/fiddle plays and was tabbed using
"Amazing Slow Downer 2.6.8" to slow down the music to an understandable speed.

e|---------------------------------------------------------------------------|
B|---------------------------------------------------------------------------|
G|---------------------12-14---14-15-14-12-----------------------------------|
D|-12----12-14-15---15---------------------15-14------------12-14------------|
A|----15-------------------------------------------15-12-15------------------|
E|---------------------------------------------------------------------------|
[ Tab from: http://www.guitartabs.cc/tabs/c/charlie_daniels_band/the_devil_went_down_to_georgia_tab.html ]
e|---------------------------------------------------------------------------|
B|---------------------------------------------------------------------------|
G|-------12-14-12------------------------------------------------------------|
D|-14-15----------15-14---14------12-14-12-------12--------------------------|
A|---------------------------12------------12-15----15-12-13-15-13-----------|
E|-----------------------------------------------------------------15--------|

e|---------------------------------------------------------------------------|
B|---------------------------------------------------------------------------|
G|---------------------------------------------------------------------------|
D|---------------------------------------------------------------------------|
A|-12-13-12----10-12-10----8-10-8-7------0--2--4--5--7--8--10--12--13--15----|
E|----------13----------10----------10---------------------------------------|

e|---------------------------------------------------------------------------|
B|---------------------------------------------------------------------------|
G|---------------------18--22\(SLIDE DOWN AND FADE AWAY)---------------------|
D|-------------17--19--------------------------------------------------------|
A|-17--19--20----------------------------------------------------------------|
E|---------------------------------------------------------------------------|

| /  slide up
| \  slide down
| h  hammer-on
| p  pull-off
| ~  vibrato
| +  harmonic
| x  mute note
===============================================================================
Comments