Charlie Daniels Band - The Devil Went Down To Georgia Chords & Tabs

 

The Devil Went Down To Georgia Chords & Tabs

Charlie Daniels Band Chords & Tabs

Version: 2 Type: Bass Tab 0 ratings
1 star 2 stars 3 stars 4 stars 5 stars
comments

The Devil Went Down To Georgia Bass Tab

"The Devil Went Down to Georgia"
By The Charlie Daniels Band 
Tabbed By Beelzebob [blzbob@hotmail.com]

Intro
G|----------------------------------------------|-
D|----------------------------------------------|- 
A|-5---5---3---3---5-3---------5---3-5----3--5--|-
E|---5---5---3---3-----6-5-3-5---5----------5---|-

Verse 
G|---------|---------
D|---------|---------
A|---3-5---|-0-2-3-4-
E|-5-------|---------

Chorus
G|--------------------------------------------------------
D|---------------------------------------------4-5---5--7- 
A|-5---5---3---3-------5---5-5---5---3-5---5-7-----5---5-- 
E|---5---5---3---6-5-3---3-----5---5-----5----------------

G----------------------------------------|-
D-7-5------------------------------------|- 
A-----8-7-5--5--3--3--5-3---------5--3-5-|- 
E-----------5--5--3--3----6-5-3-5---5----|-

Devil's Solo
Play five times		Endings first 4 times : 5th time
G|---------------------7-----------------|-----|-----|-
D|---------------5-6-7---7-6-5---5-6-7---|-5---|-----|-
A|---3-5-----5-8---------------8-------8-|---8-|-----|- 
E|-5-------------------------------------|-----|-0-2-|- 
[ Tab from: http://www.guitartabs.cc/tabs/c/charlie_daniels_band/the_devil_went_down_to_georgia_btab_ver_2.html ]
G|----------------------3-5----------------|-
D|-----------2-3-4-5--7--------------------|- 
A|-------3-5----------------3-5-----3---5--|-
E|-3-5-6------------------------------5----|-

Johnny's Solo
G|-----------------------------------------------------------
D|-----------------------------------------------------------
A|-5--55--543--33--345--55--543--33--3-------5---5---3---3---
E|-------------------------------------6-5-3---5---5---3---3-

G--------------------------------------------------------|-
D--------------------------------------------------------|- 
A-5---5---3---3---5---5---3---3---------------------3-5--|- 
E---5---5---3---3---5---5---3---3--5----5----5----5------|- 

G|-------------------------------------------
D|-------------------------------------------
A|-5--55--543--33--345--55--543--33--3-------
E|-------------------------------------6-5-3-

G|-----------------------------------------|-
D|-----------------------------------------|-
A|-5---5---3---3---5---5---3---3---5---5---|-
E|---5---5---3---3---5---5---3---3---5---5-|-

G|---------------------------------------7---5---3---2-----------|-
D|-------5--7-5------7-5------7-5------------------------5---3---|- 
A|-3-5-7--------8-7------8-7-------8-7-5---3---1---0-----------5-|- 
E|-----------------------------------------------------3---1-----|- 
Comments