Charlie Daniels Band - Long Haired Country Boy Chords & Tabs

 

Long Haired Country Boy Chords & Tabs

Charlie Daniels Band Chords & Tabs

Version: 3 Type: Tab 0 ratings
1 star 2 stars 3 stars 4 stars 5 stars
comments

Long Haired Country Boy Tab

Long Haired Country Boy
Tabbed by Kyle O.

standard tuning
     
Intro

|----2---2--------------------------------------------|
|----3---3--------------------------------------------|
|----2---2--------------------------------------------|
|-0--0---0-----0--3p0-0--5-0-3-0-------------0h2-0----|
|------0---2h3--0---------------5-0-3-0--0h2----------|
|-----------------------------------------------------|

Verse

|-----2-----2--|
|-----3-----3--|
|-----2-----2--|
|--0--0-----0--|
|--------0-----|
|--------------|

Chorus-listen to the song to get the strumming right
[ Tab from: http://www.guitartabs.cc/tabs/c/charlie_daniels_band/long_haired_country_boy_tab_ver_3.html ]
|------1-------------2--2---0-----------------------------------------2-2-|
|------0-------------3--3---2-----------------------------------------3-3-|
|------0-------------2--2---0-------0--0--0--0--0--0------------------2-2-|
|------0-----------0-0--0---2------0--0--0--0--0--0-----------------0-0-0-|
|------2---------------0----0-----3--2--0------------------------------0--|
|------3--------------------x--------------3--2--0------------------------|
 ain't askin'   my own     like   leave this long haired country boy alone

solo-timings off
                                                             
|-----3/5-5-3-3h5-1--1p0-----1----3/5-5-3-5/7-5-1p0---1p0-----------|
|--2h3------------------3-3-1--2h3------------------3-----3p1-------|
|------------------------------------------------------------2p0---0|
|---------------------------------------------------------------3p0-|---|
|-------------------------------------------------------------------|   |
|-------------------------------------------------------------------|   |
                                                                 ^^^    |
|-----3/5-5-3h5-1-1p0-1p0-----1---5-1-------------1p0----------|i improvised
|--2h3---------------3---3-3-1--------3-----3h5-3----3p1-------|this part
|----------------------------------------2h4------------2p0----|cause the
|----------------------------------------------------------3p0-|guitar gets
|--------------------------------------------------------------|too low
|-------------------------------------------------------------- 

Thats the complete song  
enjoy
Comments