Charlie Daniels Band - Long Haired Country Boy Chords & Tabs

 

Long Haired Country Boy Chords & Tabs

Charlie Daniels Band Chords & Tabs

Version: 2 Type: Tab 0 ratings
1 star 2 stars 3 stars 4 stars 5 stars
comments

Long Haired Country Boy Tab

--------------------------------------------------------------------------
                  Charlie Daniels Band - Long Haired Country Boy
-------------------------------------------------------------------------------

Tabbed by: Thurston Plumley
Email: xxgoddlyxx@yahoo.com

Tuning: Standard
[ Tab from: http://www.guitartabs.cc/tabs/c/charlie_daniels_band/long_haired_country_boy_tab_ver_2.html ]
e|-----2----2----------------------------------------------------------------|
B|-----3----3----------------------------------------------------------------|
G|-----2----2------------------0---------------------------------------------|
D|---0----0---------0----3b-0----0-3-0-2-0-----------3b-0--------------------|
A|-------------0-3----0--------------------3-0---0-3-------------------------|
E|---------------------------------------------3-----------------------------|

The rest of the song I play differently, adding my own picking, and strumming in.
It's not hard to figure out. By the way.  I'm 16 years old, this is my first tab
ever, so take it easy on me.
Comments