Charlie Daniels Band - Devil Went Down To Georgia Intro Chords & Tabs

 

Devil Went Down To Georgia Intro Chords & Tabs

Charlie Daniels Band Chords & Tabs

Version: 1 Type: Tab 1 rating
1 star 2 stars 3 stars 4 stars 5 stars
comments

Devil Went Down To Georgia Intro Tab

   
Here's the intro to the song.......i didnt feel like tabbing out all of the solo's. The whole
song is in Dm, so you can use that scale for soloing....i also didnt include the lyrics or chords
for the rest of the song.....but if you search you can find that.
   Dm
E|-10-9-10-12-13--13-15-17--17-18-17-15-13-10----------------
B|-----------------------------------------------------------
G|-----------------------------------------------------------
D|-----------------------------------------------------------
A|-----------------------------------------------------------
E|-----------------------------------------------------------
[ Tab from: http://www.guitartabs.cc/tabs/c/charlie_daniels_band/devil_went_down_to_georgia_intro_tab.html ]
   C
E|-8-5-8-10-12--12-13-15-17--15-13-12-10-8-------------------
B|-----------------------------------------------------------
G|-----------------------------------------------------------
D|-----------------------------------------------------------
A|-----------------------------------------------------------
E|-----------------------------------------------------------

  Dm            C          Bb        Am        G        A        Bb  C  Dm
E|-10-12-10-----8-10-8------6-8-7-----5-7-5----3-5-3----1-3-1-0----------------
B|----------10---------10---------8---------6--------3-------------------------
G|----------------------------------------------------------------3--5---7-----
D|-----------------------------------------------------------------------------
A|-----------------------------------------------------------------------------
E|-----------------------------------------------------------------------------

  Dm (walk)
E|-------------5-6-8-10-12-13-15-17-20-22/-------------------
B|---------6-8-----------------------------------------------
G|-2-4-5-7---------------------------------------------------
D|-----------------------------------------------------------
A|-----------------------------------------------------------
E|-----------------------------------------------------------

Comments