Charlatans - Spronston Green Chords & Tabs

 

Spronston Green Chords & Tabs

Charlatans Chords & Tabs

Version: 2 Type: Bass Tab 0 ratings
1 star 2 stars 3 stars 4 stars 5 stars
comments

Spronston Green Bass Tab

From: piercec@ucs.orst.edu (Christopher Pierce)

Febuary 8, 1995
There's probably a few grace notes thrown in here and there, but
this is the jist of it.


                           Spronston Green
 BASS TAB                -------------------
                          by The Charlatans
                  (from the alblum "Some Friendly")
[ Tab from: http://www.guitartabs.cc/tabs/c/charlatans/spronston_green_btab_ver_2.html ]
                                                            6x                                                                           
|------------------------------||-------------------------------||
|------------------------------||*-----------------------------*||
|------------------------------||*-5-7-------------------------*||
|----0---0-0---0---0---7-5-4---||--------0-0---0---0---7-5-4----||
                                                                           

   silent during                                       repeat for
   break                                                 duration                         
|--------------------------||-----------------------------------||
|--------------------------||*---------------------------------*||
|--------------------------||*-5-7---7-7---7-7---7---7---------*||
|--------------------------||--------------------------7-5-4-0--||


*************************************************************************
Transcriber: Christopher Pierce    (note: This is my rendition, and it's)
             piercec@ucs.orst.edu  (      within your right to disagree.)
*************************************************************************
                   

Comments