Charge - Vaughandrix Chords & Tabs

 

Vaughandrix Chords & Tabs

Charge Chords & Tabs

Version: 3 Type: Tab 0 ratings
1 star 2 stars 3 stars 4 stars 5 stars
comments

Vaughandrix Tab

   
I looked at the other tabs on the sight and in one of them a few things seemed a little
inaccurate in the intro and i couldnt really match up with the rest of the song so i
redid the intro. Its a little bit more accurate but i still need the tab for the rest
of the song.  If anybody has the tab for the rest of the song e-mail me at
magnifico153@yahoo.com. Enjoy!
[ Tab from: http://www.guitartabs.cc/tabs/c/charge/vaughandrix_tab_ver_3.html ]
1st Guitar
  
    let e ring
|---0---------|-------------------|---------------|---------------------|
|---0---------|-------------------|---------------|---------------------|
|-------------|-----------4-4h6p4-|-6-6b-4--------|---------------------|
|-------------|-----2h4/6---------|--------6p4\2--|---2-4h6-4p2---2-4h6-|
|-----------2-|-2h4---------------|---------------|-4-----------4-------|
|-0---0h2h4---|-------------------|---------------|---------------------|
                  Dmaj7 Esus
|---------------|-2-2h4-0-|
|-------------5-|-2-2---0-|
|-4h6p4---4h6---|-2-2---4-|
|-------6-------|-0-0---2-|
|---------------|---------|
|---------------|---------|
Comments