Chapman Steven Curtis - Let Us Pray Chords & Tabs

 

Let Us Pray Chords & Tabs

Chapman Steven Curtis Chords & Tabs

Version: 1 Type: Bass Tab 0 ratings
1 star 2 stars 3 stars 4 stars 5 stars
comments

Let Us Pray Bass Tab

Let Us Pray
Steven Curtis Chapman
Signs of Life
Sparrow Records

Chad Anderson
chad79@ou.edu

Intro
|----3--------3-----------|-----3--------3-----------|
|-------3--4-----0--1--0--|--------3--4-----0--1--3--| x 2
|-1-----------------------|--1-----------------------|
|-------------------------|--------------------------|

|-------------------------------------|---------------------------------|
|--------8--------------------8-------|--5--------5---------5---------5-|
|6------------------6-----------------|---------------------------------|
|-------------------------------------|---------------------------------|

|----------------------------------|-------------------------5-------|
|--1------1---------1-------1------|---------------------------------|
|----------------------------------|3------3--------3----3------3----|
|----------------------------------|---------------------------------|

|----------------------------------|------------------------------|
|--------8--------------------8----|--5-------5--------5--------5-|
|6------------------6--------------|------------------------------|
|----------------------------------|------------------------------|

|----------------------------------|-------------------------5-------|
|--2------2---------2-------2------|---------------------------------|
|----------------------------------|3------3--------3----3------3----|
|----------------------------------|---------------------------------|

|----------------------------------|-----------------------------------|
|--1------1---------0-------0------|-----------------------------------|
|----------------------------------|5----5-----------5----5---5---3----|
|----------------------------------|-----------------------------------|
[ Tab from: http://www.guitartabs.cc/tabs/c/chapman_steven_curtis/let_us_pray_btab.html ]
|----------------------------------|---------------------------------|
|-1---1---------1----0----0--------|--3---------3----3----5----------|
|----------------------------------|---------------------------------|
|----------------------------------|---------------------------------|

|----------------------------------|-----------------------------------|
|-1---1---------1----0----0--------|3------3-------5----5----5---------|
|----------------------------------|-----------------------------------|
|----------------------------------|-----------------------------------|

|----------------------------------|---(10)-----------------------|
|--1--------1--------0------0------|3-------3-3-3-3-----3---------|
|----------------------------------|------------------------------|
|----------------------------------|------------------------------|

|----------------------------------|---------------------------------|
|-1---1---------1----0----0--------|--3---------3----5----5----------|
|----------------------------------|---------------------------------|
|----------------------------------|---------------------------------|

|----------------------------------|
|-1---1---------3----3----3--------|
|----------------------------------|
|----------------------------------|


|----------------------------------|---------------------------------|
|---4---4---4---4---4---4---4---4--|-6---6---6---6---6---6---6---6---|
|----------------------------------|---------------------------------|
|----------------------------------|---------------------------------|

|----------------------------------|---------------------------------|
|---3---3---3---3---3---3---3---3--|---------------------------------|
|----------------------------------|--1----3----4-----3--------------|
|----------------------------------|---------------------------------|

|----------------------------------|---------------------------------|
|---4-------4-------1-------1------|-3-------3---3---3---------------|
|----------------------------------|---------------------------------|
|----------------------------------|---------------------------------|

Chorus x 2
Intro x 14

Comments