Chancho En Piedra - Volantin Chords & Tabs

 

Volantin Chords & Tabs

Chancho En Piedra Chords & Tabs

Version: 1 Type: Tab 0 ratings
1 star 2 stars 3 stars 4 stars 5 stars
comments

Volantin Tab

         "Volantin" de Chancho en Piedra
          tanscrita por Darknilo

 INTRO
e-----2-0----------------!
B---------3-2-3-2-0------!
G-------------------2-0--!
D------------------------!
A------------------------!
E------------------------!

NOTAS

   LA7         SOL7        FA7

e---9----     ---7---    ---5---|
B---8----     ---6---    ---4---|
G---9----     ---7---    ---5---|
D---7----     ---5---    ---3---|
A--------     -------    -------|
E--------     -------    -------|

  NOTAS CORO

     MI        LA      FA#m     LA     FA#m
  e-------  --------  ---2---|
  B-------  ---2----  ---2---|
  G-1-----  ---2----  ---2---|
  D---2---  ---2----  ---4---|
  A---2---  --------  ---4---|
  E-------  --------  ---2---|

     FA#m      MI       RE        SI7
                     ---2---    ---2---|
                     ---3---    ---0---|
                     ---2---    ---2---|
                     -------    ---1---|
                     -------    ---2---|
                     -------    -------|
 SOLO
e-----2-0----------------!---------------2-5-2-0---------------!
B---------3-2-3-2-0------!---------2-3-5---------3-2-3-2-0-----!
G-------------------2-0--!-----2-4-------------------------2-0-!
D------------------------!---5---------------------------------!
A------------------------!-------------------------------------!
E------------------------!-------------------------------------!
[ Tab from: http://www.guitartabs.cc/tabs/c/chancho_en_piedra/volantin_tab.html ]
2X
e-------------------------------!
B-------------------------------!
G-------------------------------!
D-----------0-------------0-----!
A-4---0-2-4---4-2-0---0-2---4---!
E-2-3---------------3-----------!


e---------------!--------------------!
B---------------!--------------------!
G---------------!--------------------!
D-----0---------!-----0-4-2-0--------!
A-------4-0-2---!-2-4---------4/16---!
E---3-----------!--------------------!


Miro hacia el cielo, con mi derecha me pongo a elevar
No se imaginan todo el placer que esto a mi me da
Y no te miento
Hago los tirantes y me pongo a encumbrar
M?s all? del cielo vamos juntos a llegar.
Saco mi pavo, lo hago de nuevo, vuelvo a gozar

coro

A encumbrar volantin, quiero llegar a ti
romperemos hoy la ley de gravedad
a encumbrar volantin que me lleve hasta el fin de este cielo
No importa el color o el tama?o que este tenga
la imagen de una bella musa todo lo resuelva para mi
las nubes se correran cuando sople el viento a mi favor
Estar? atento para no caer del firmamento
Dame unos segundos para hacerte realidad

..... entra en mi imaginacion....

tengo en mi mano lo que vienes a buscar....

....que intensa emocion

quiero que dure una eternidad

coro

dime donde vas ..... te podr? alcanzar....

sensacion de libertad

de ni?o descubri el placer quye da encumbrar
Siempre lo he hecho, siempre lo har?, nunca voy a parar
una vez me fui cortado junto a una estrella fugaz
le pedi que de ser ni?o nunca me fuera a olvidar.
El hilo pa delante, jalo el hilo para atr?s
Como todo en la vida hay que aprender a disfrutar
No espero el 18 para ponerme a encumbrar

coro
Comments