Chancho En Piedra - Lophophora Chords & Tabs

 

Lophophora Chords & Tabs

Chancho En Piedra Chords & Tabs

Version: 1 Type: Bass Tab 1 rating
1 star 2 stars 3 stars 4 stars 5 stars
comments

Lophophora Bass Tab

"Lophophora"
"Chancho en Piedra"
Album: Marca Chancho
Tab por kilterry
marcelorocket@hotmail.com

Bass

1st verse:

G-|-----------------|---------------------------------|
D-|-----------------|---------------------------------|
A-|-2-2----------2--|-----2-1-0-0-----------0-0-0-0---|
E-|----0-0-2-4-5----|-2-2---------0-0-0-2-4-----------|

G-|--------------------------------------------|------------|
D-|---2-4-4-------2----4---4-3-2-2---------0-2-|-0-2-0------|
A-|-4-------4-4-4----4---4---------0-0-2-4-----|-------4-0--|
E-|--------------------------------------------|------------|

G-|-----------------|---------------------------------|
D-|-----------------|---------------------------------|
A-|-2-2----------2--|-----2-1-0-0-----------0-0-0-0---|
E-|----0-0-2-4-5----|-2-2---------0-0-0-2-4-----------|

G-|----------------------(2)pop--------------------------|------------|
D-|---2-4-4-------2----4----------4-3-2-2------------0-2-|-0-2-0------|
A-|-4-------4-4-4----4----------4------------0-0-2-4-----|-------4-0--|
E-|------------------------------------------------------|------------|


Chorus 1:

G-|-2------------2--------2---------------------2------------2--------2---------|
D-|---4----2-4-2-----2-4----4---2-4-2-------------4----2-4-2-----2-4----4-2-----|
A-|----------------4------------------4(vib)/1-----------------4----------------|
E-|-----------------------------------------------------------------------------|
     

2nd verse:

G-|-----------------|---------------------------------|
D-|-----------------|---------------------------------|
A-|-2-2----------2--|-----2-1-0-0-----------0-0-0-0---|
E-|----0-0-2-4-5----|-2-2---------0-0-0-2-4-----------|

G-|--------------------------------------------|------------|
D-|---2-4-4-------2----4---4-3-2-2---------0-2-|-0-2-0------|
A-|-4-------4-4-4----4---4---------0-0-2-4-----|-------4-0--|
E-|--------------------------------------------|------------|

G-|-----------------|---------------------------------|
D-|-----------------|---------------------------------|
A-|-2-2----------2--|-----2-1-0-0-----------0-0-0-0---|
E-|----0-0-2-4-5----|-2-2---------0-0-0-2-4-----------|
[ Tab from: http://www.guitartabs.cc/tabs/c/chancho_en_piedra/lophophora_btab.html ]
G-|----------------------(2)pop--------------------------|------------|
D-|---2-4-4-------2----4----------4-3-2-2------------0-2-|-0-2-0------|
A-|-4-------4-4-4----4----------4------------0-0-2-4-----|-------4-0--|
E-|------------------------------------------------------|------------|


Chorus 2:

G-|-2------------2--------2---------------------2------------2--------2---------|
D-|---4----2-4-2-----2-4----4---2-4-2-------------4----2-4-2-----2-4----4-------|
A-|----------------4------------------4(vib)/1-----------------4----------------|
E-|-----------------------------------------------------------------------------|
     
G-|-------------------------|
D-|--2h42h42h42h4-----------|
A-|-------------------------|
E-|-------------------------|

G-|-2------------2--------2-------------------2------------2--------2---------|
D-|---4----2-4-2-----2-4----4---2-4-2-----------4----2-4-2-----2-4----4-2-----|
A-|----------------4------------------4(vib)/1-----------------4--------------|
E-|---------------------------------------------------------------------------|
     

Guitar Solo:

G-|-----------------|---------------------------------|
D-|-----------------|---------------------------------|
A-|-2-2----------2--|-----2-1-0-0-----------0-0-0-0---|
E-|----0-0-2-4-5----|-2-2---------0-0-0-2-4-----------|

G-|--------------------------------------------|------------|
D-|---2-4-4-------2----4---4-3-2-2---------0-2-|-0-2-0------|
A-|-4-------4-4-4----4---4---------0-0-2-4-----|-------4-0--|
E-|--------------------------------------------|------------|

G-|-----------------|---------------------------------|
D-|-----------------|---------------------------------|
A-|-2-2----------2--|-----2-1-0-0-----------0-0-0-0---|
E-|----0-0-2-4-5----|-2-2---------0-0-0-2-4-----------|

G-|----------------------(2)pop--------------------------|------------|
D-|---2-4-4-------2----4----------4-3-2-2------------0-2-|-0-2-0------|
A-|-4-------4-4-4----4----------4------------0-0-2-4-----|-------4-0--|
E-|------------------------------------------------------|------------|


End:

G-|----------------|
D-|----------------|
A-|---3/4--2-------|
E-|-3--------------|
Comments