Chancho En Piedra - Locura Espacial Chords & Tabs

 

Locura Espacial Chords & Tabs

Chancho En Piedra Chords & Tabs

Version: 1 Type: Bass Tab 0 ratings
1 star 2 stars 3 stars 4 stars 5 stars
comments

Locura Espacial Bass Tab

   
INTRO

G-------------------------------------|
D-------------------------------------|
A-------2-0-2-4-0-------2-0-0-0-2-4-0-| X3
E-0-2-4-----------0-2-4---------------|

G-----------------------------------------|
D-----------------------------------------|
A-------2-0-0-0-----------2-0-0-0-0-0-0-0-|
E-0-2-4---------4-2-0-2-4-----------------|

VERSO
\"No soy el indicado...\"
G---------------------------------|
D---6-9-----------6-9-------------|
A-7---------4-7-7-----------6-9-6-| X3
E-------5-5-----------7-7-7-------|

G---------------------------------|
D---6-9-----------6-9-------------|
A-7-------------7-----------6-9-6-|
E-------5-5-4-2-------7-7-7-------|

CORO

G---------------------------------|
D-----------------------------2---|
A-------2-0-------------2-4-2---4-| X2
E-0-2-4-----4-2-0-0-2-4-----------|

G-------1-------|
D-----2---2-----|
A-2-4-------4-0-|
E---------------|

G---------------------------------|
D-----------------------------2---|
A-------2-0-------------2-4-2---4-| X2
E-0-2-4-----4-2-0-0-2-4-----------|

VERSO 2(IGUAL QUE EL PRIMERO)
CORO 2

G---------------------------------|
D-----------------------------2---|
A-------2-0-------------2-4-2---4-| X2
E-0-2-4-----4-2-0-0-2-4-----------|

G-------1-------|
D-----2---2-----|
A-2-4-------4-0-|
E---------------|

G-------------------------------------------------|
D-----------------------------2-------------------|
A-------2-0-------------2-4-2---4-------2-0-------|
E-0-2-4-----4-2-0-0-2-4-----------0-2-4-----4-2-0-|

G----------------------------------------------------|
D----------------------------------------------------|
A-------------------------9---7-7-7-7--7-6-7-9-7-6---|
E-2-2-2-4-4-4-5-5-5-7-7-7---9----------------------9-|

G--------------9------9-|
D---------9-11---9-11---|
A-----------------------|
E-7-7-7-7---------------|

G----------------------------------------------------|
D----------------------------------------------------|
A-------------------------9---7-7-7-7--7-6-7-9-7-6---|
E-2-2-2-4-4-4-5-5-5-7-7-7---9----------------------9-|

G----------------9---11-11-11-|
D---------9-11-9---9----------|
A-----------------------------|
E-7-7-7-7---------------------|
[ Tab from: http://www.guitartabs.cc/tabs/c/chancho_en_piedra/locura_espacial_btab.html ]
G-----------------------------------------------------------------|
D-----------------------------------------2-2-2-------2-2-2-------|
A---------------------------------2/7-7/2-------2-2-2-------2-2-2-|
E-2-2-2-4-4-4-5-5-5-7-7-7-5-4-2-0---------------------------------|

INTRO

G-------------------------------------|
D-------------------------------------|
A-------2-0-2-4-0-------2-0-0-0-2-4-0-|
E-0-2-4-----------0-2-4---------------|

G-----------------------------------------|
D-----------------------------------------|
A-------2-0-0-0-----------2-0-0-0-0-0-0-0-|
E-0-2-4---------4-2-0-2-4-----------------|

VERSO 3
\"Sera normal o ...\"
G---------------------------------|
D---6-9-----------6-9-------------|
A-7---------4-7-7-----------6-9-6-| X2
E-------5-5-----------7-7-7-------|

G---------------------------------------|
D---6-9-6-------------6-9-6-------------|
A-7-----------4-7-4-7-------------6-9-6-|
E---------5-5---------------7-7-7-------|

G-------------------------------|
D-------------------------------|
A-7-7-7-------7-7-7-------6-9-6-|
E-------5-5-5-------7-7-7-------|

CORO 3
\"Todos estan locos...\"
G------------------------|
D------------------------|
A------------------------|
E-2-2-2-4--2-2-2-4-4-4-5-|

G----------------------------------------------------|
D----------------------------------------------------|
A-------------------------9---7-7-7-7--7-6-7-9-7-6---|
E-2-2-2-4-4-4-5-5-5-7-7-7---9----------------------9-|

G--------------9------9-|
D---------9-11---9-11---|
A-----------------------|
E-7-7-7-7---------------|

G----------------------------------------------------|
D----------------------------------------------------|
A-------------------------9---7-7-7-7--7-6-7-9-7-6---|
E-2-2-2-4-4-4-5-5-5-7-7-7---9----------------------9-|

G----------------9---11-11-11-|
D---------9-11-9---9----------|
A-----------------------------|
E-7-7-7-7---------------------|

G-------------------------------|
D-------------------------------|
A-------------------------------|
E-2-2-2-4-4-4-5-5-5-7-7-7-5-4-2-|

G---------------------------------|
D-----------------------------2---|
A-------2-0-------------2-4-2---4-| X2
E-0-2-4-----4-2-0-0-2-4-----------|
Comments