Chancho En Piedra - Eligiendo Una Reina Chords & Tabs

 

Eligiendo Una Reina Chords & Tabs

Chancho En Piedra Chords & Tabs

Version: 1 Type: Tab 0 ratings
1 star 2 stars 3 stars 4 stars 5 stars
comments

Eligiendo Una Reina Tab

   
hola cabros, un temazo de Chancho en Piedra por aqui

Standard tuning (E A D G B E)

/ = Slide
x = Death note

INTRO

Para Guitarra con Phaser(lo pueden tocar octavado también)
|----|----------------------------|
|----|----------------------------|
|----|----------------------------|
|----|----------------------------|
|----|----------------------------|
|-12/|-0---3--5--6--5--3-3-0------|
    *                                   *Haces un slide descendente

|---------------------------------------|
|---------------------------------------|
|---------------------------------------|
|---------------------------------------|
|----------------------------------7--5-|
|-0-3-5---3--5--6--5--3-3-5--5-3--------|

|------------------------------------|    |-------------------------|
|------------------------------------|    |-------------------------|
|------------------------------------|    |-------------------------|
|------------------------------------|    |-------------------------|
|------------------------------------|    |----5------4-------------|
|--0---3--5--6--5--3-3--5--6-5-3-5-3-|    |-6----6-5-----6-5-3-0----|


Bajo (casi lo mismo)
|----|----------------------------|
|----|----------------------------|
|----|----------------------------|
|-12/|-0---3--5--6--5--3-3-0------|

|----------------------------------------------------------------------|
|----------------------------------------------------------------------|
|----------------------------------7--7--------------------------------|
|-0-3-5---3--5--6--5--3-3-5--5-3---------------------------------------|
                                          |-----Slap-------------------|
|------------------------------------|   |-----------------------------|
|------------------------------------|   |---8---8---7---7-------------|
|------------------------------------|   |-----------------------------|
|--0---3--5--6--5--3-3--5--6-5-3-5-3-|   |-6---6---5---5----6-5-3-0----|


CORO
La guitarra y el bajo tocan lo mismo (junto con la voz)
y durante el coro entran las trompetas (adaptadas para guitarra):
|----------------------------------------------------------------|
|--------------------10--------10-10-10-10-------10-12-----------|
|---9-9-9-9-----9--9-----12--------------------9-------12--9-7-9-|
|----------------------------------------------------------------|
|----------------------------------------------------------------|
|----------------------------------------------------------------|

|------------------------------------------------------|
|--------------------10---------------------11-10------|
|---9-9-9-9-----9--9-----12-----------------------12-9-|
|------------------------------------------------------|
|------------------------------------------------------|
|------------------------------------------------------|

Verso
No estoy muy seguro pero creo que va así:

Guitarra (con Wah-wah):
|-------------------------------------------------|
|-10--xxxx-10-xx-10-xxx-10-xxx-10-10---10-xx-8-xx-|
|-9---xxxx-9--xx-9--xxx-9--xxx-9--9----9--xx-7-xx-|
|-7---xxxx-7--xx-7--xxx-7--xxx-7--7----7--xx-5-xx-|
|-------------------------------------------------|
|-------------------------------------------------|

|--------------------------------------------------|
|-10--xxxx-10-xx-10-xxx-10-xxx-10-10---12-xx-11-xx-|
|-9---xxxx-9--xx-9--xxx-9--xxx-9--9----11-xx-10-xx-|
|-7---xxxx-7--xx-7--xxx-7--xxx-7--7----9--xx-8--xx-|
|--------------------------------------------------|
|--------------------------------------------------|

|-------------------------------------------------|
|-10--xxxx-10-xx-10-xxx-10-xxx-10-10---10-xx-8-xx-|
|-9---xxxx-9--xx-9--xxx-9--xxx-9--9----9--xx-7-xx-|
|-7---xxxx-7--xx-7--xxx-7--xxx-7--7----7--xx-5-xx-|
|-------------------------------------------------|
|-------------------------------------------------|
[ Tab from: http://www.guitartabs.cc/tabs/c/chancho_en_piedra/eligiendo_una_reina_tab.html ]
En 0:43 ''...desde niña hacer dieta para su silueta..''
|------------------------------------|
|------------------------------------|
|------------------------------9--7--|
|---------------------7-7-7----------|
|-7-7-7-7-10-10-10-10-------10-------|
|------------------------------------|
                                            Todo esto x2
Bajo
|-------------------------------------|
|------------2------------------------|
|----------3---3--5---0--2-2-2--3-3-3-|
|-0-3-4-5-----------------------------|

|------------------------------------|
|------------2---------4-4-4--5-5-5--|
|----------3---3---------------------|
|-0-3-4-5---------5------------------|

|-------------------------------------|
|------------2------------------------|
|----------3---3--5---0--2-2-2--3-3-3-|
|-0-3-4-5-----------------------------|

0:43 ''...desde niña hacer dieta para su silueta..''
|------------------------------|
|------------------------------|
|-------------------------7-5--|
|-0-0-0-0-3-3-3-3-5-5-5-3------|                 Todo esto x2


(Coro)

(Verso)

(Coro)

Solo de guitarra 2:04
|-----------------------------------------------------------------|
|-----------------------------------------------------------------|
|-----------------------------------------------------------------|
|-----12------11-----11-12-14-12-11-12----12------11--------------|
|-13----13-12-----13-------------------13---13-12----13--13-13----|
|--------------------------------------------------------------12-|

''No importa baby, no importa...''
|----------------------------------------------------|
|----------------------------------------------------|
|----------------------------------------------------|
|-----12------11-----11-12-14-12-11-12----12------11-|
|-13----13-12-----13-------------------13---13-12----|
|----------------------------------------------------|

-----------------------------------------------------------------------------|
-----------------------------------------------------------------------------|
-----------------------------------------------------------------------------|
----11-12-14-14-15-14-12------12------11-----11-12-14-12-11-12----12------11-|
-13-----------------------13----13-12-----13-------------------13---13-12----|
-----------------------------------------------------------------------------|

 --------------|
 --------------|
 --------------|
 --------------|
 -13-12-10-----|
 ----------12--|

Solo de Trompeta (el coro sin las voces):
|----------------------------------------------------------|
|----------------------------------------------------------|
|------------------------------------------------15-14-12--|
|-14-14-14-14--14-14-14-14----14--14-14-14-14--------------|
|----------------------------------------------------------|
|----------------------------------------------------------|

|----------------------------|
|----------------------------|
|----------------------------|
|-14-14-14-14-----12---------|
|--------------14------------|
|----------------------------|

|---------------------------------------------|
|---------------------------------------------|
|---------------------------------------14-12-|
|-14-14-14-14--14-14-14-14----14--14-14-------|
|---------------------------------------------|
|---------------------------------------------|

|--------------------------------------------|
|--------------------------------------------|
|--------------------------------15-14-12----|
|-14-14-14-14--14-14-14-14---14-----------14-|
|--------------------------------------------|
|--------------------------------------------|

(Verso)

(Coro)

(Verso)

Coda (lo mismo que el solo de guitarra, excepto un poco antes del final...)

3:58
|-------------------------------|
|-------------------------------|
|--12--10--9------9--9-10-9-----|
|-------------12------------12--|
|-------------------------------|
|-------------------------------|
Comments