Chalk Circle - Nimby Chords & Tabs

 

Nimby Chords & Tabs

Chalk Circle Chords & Tabs

Version: 1 Type: Tab

Nimby Tab

   
Nimby, Chalk Circle - http://www.chalkcircle.ca/


12 string accoustic


Fm;133111 	G/Cm;335543 	G#/C#;446664

e--8~~~~~--6-4~~-3~-r-|--4-3---8~----11\---6~------|
B---------------------|----------------------------|
G---------------------|----------------------------|
D---------------------|----------------------------|   
A---------------------|----------------------------|
E---------------------|----------------------------|

Fm \\\\ \\\ \ G/Cm \\\\ \\\ \ G#/C# \\\\ \\\ \

The silence... carries miles away,
Patience, thrust or blind faith,
the Station, spreads like a weed,
Farmland, home for the disease,

G/C;332010 \ \\ \ \\ E/Am;002210 \ \\ \ \\ x2

Distance; measured with the heart,
Enviroment; we are all apart,
People, castles, common ground,
Mending wall; make it fall down,
[ Tab from: http://www.guitartabs.cc/tabs/c/chalk_circle/nimby_tab.html ]
G/C;332010 	    E/Am;002210 
e---0------------0------------0------------0---------|
B----1----1-------1----1-------1----1-------1----1---|
G-----2----2-------2----2-------2----2-------2----2--|
D-3---------3--3---------3--0---------2--0---------2-|   
A-------3------------3-------------------------------|
E---------------------------------0------------0-----|

Am \ \\  \  \\         C
Where are you going to dig that hole,
C         Am
not in my backyard, 
Where are you going to burn those eyes,
not in my backyard, 
Where are you going to rape that land,
not in my backyard, 
Where are you going to rake that skin,
not in my backyard, 

Violin Solo w/ 
Fm \\\\ \\\ \ G/Cm \\\\ \\\ \ G#/C# \\\\ \\\ \ x2


If "good fences make good neighbours,
thay are a gift from mother nature,
walls distort our point of view,
like blindness self-imposed upon me and you,

Where are you going to dig that hole,
not in my backyard, 
Where are you going to burn those eyes,
not in my backyard, 
Where are you going to rape that land,
not in my backyard, 
Where are you going to rake that skin,
not in my backyard, 



e----2--------2--------3-------3-------4----------|
B-------2--------2--------4-------4-------6-------|
G-------------------------------------------------|
D-4--------4--------5--------5-------6------------|   
A-------------------------------------------------|
E-------------------------------------------------|


Any comments or corrections please leave them at: afawill(at)gmail(dot)com