Chaka Khan - Sweet Thing Chords & Tabs

 

Sweet Thing Chords & Tabs

Chaka Khan Chords & Tabs

Version: 1 Type: Tab 0 ratings
1 star 2 stars 3 stars 4 stars 5 stars
comments

Sweet Thing Tab

the intro

e---12-12-11-11------------------------------------------|
b---12-12-11-11------------------------------------------|
g----9--9--8--8------------------------8-----------------|
d--------------------9--9h11p9----7h8h9--s11~--9-9-9p7---|
a--------------------------------------------------------|
e--------------------------------------------------------|

[ Tab from: http://www.guitartabs.cc/tabs/c/chaka_khan/sweet_thing_tab.html ]
e---12-12-11-11------------------------------------------|
b---12-12-11-11------------------------------------------|
g----9--9--8--8-------------------8h9p8------------------|
d---------------9--9h11p9----7h8h9------s11~--9-9-9p7----|
a--------------------------------------------------------|
e--------------------------------------------------------|

well, the intro- riff was pretty diffecult to hear in the song...

i really dont know how goood this tab was, i hope you got some help...
:cheers:
Comments