Chaind - Placebo Chords & Tabs

 

Placebo Chords & Tabs

Chaind Chords & Tabs

Version: 1 Type: Tab 1 rating
1 star 2 stars 3 stars 4 stars 5 stars
comments

Placebo Tab

Song:Plecebo
Artist:ChainD (my band)               X= lay finger lightly on fret without pressing down 
(distorted heavily)                      to mute the string and stroke up and down to make  
                                         a scratching sound. 
                                           


Intro/Outro

1x-----------------------------------------------------
2x-----------------------------------------------------
3x-----------------------------------------------------
4x-----------------------------------------------------   2x
5x-----0-4-0-4-0------0-4-0-0-----0-4-0-4-0-----0-4-3-3
6x-4-6------------4-6---------4-6-----------4-6--------

Chorus
[ Tab from: http://www.guitartabs.cc/tabs/c/chaind/placebo_tab.html ]
1x-------------------------------------------------------
2x-------------------------------------------------------
3x-------------------------------------------------------
4x-------------------------------------------------------
5x-5-(5X)-4-(4X)-3-(3x)-2-(2X)-2-(2X)--------------------
6x-5-(5X)-4-(4X)-3-(3x)-2-(2X)-2-(2X)--------------------

Verse (heavy distortion)

1x--------------------------------------------------------
2x--------------------------------------------------------
3x--------------------------------------------------------
4x--------------------------------------------------------   2x
5x-5-4-3-2-2-2-2-5-4-3-2-2-2-2-5-6-7-8-8-8-8-5-6-7-8-8-8-8
6x-5-4-3-2-2-2-2-5-4-3-2-2-2-2-5-6-7-8-8-8-8-5-6-7-8-8-8-8

Song Structure:
Intro 2x
Verse 
Chorus 2x
Verse
Chorus 2x
Outro (let last note ring)


Alright, this is a REALLY easy song. If you want to comment, 
or if you have something to say (about how dumb I am.) just e-mail me.

!!!METAL FOR LIFE!!!




Comments