Cessna - Celoso Chords & Tabs

 

Celoso Chords & Tabs

Cessna Chords & Tabs

Version: 1 Type: Tab 0 ratings
1 star 2 stars 3 stars 4 stars 5 stars
comments

Celoso Tab

   
This is a grate famous song from parral, its very easy 

Tunning in Drop D (DADGBE)

This intro is based in A scale

 A    D                   E7           A
E-----------------------------------------
B--2--5\7-777-5-3-3\7-77-10-10-9--9-7--5--
G--2--6\7-777-6-4-4\7-77-11-11-9--9-7--6--
D-----------------------------------------
A-----------------------------------------
D-----------------------------------------
[ Tab from: http://www.guitartabs.cc/tabs/c/cessna/celoso_tab.html ]
   F#7                 Bm    E7                A
E--9--9\14-14-14-14--9-10--12-12--10--12-(10)-(9)--
B-10-10\15-15-15-15-10-12--14-14--12--14-(12)-(10)-
G--------------------------------------------------
D--------------------------------------------------
A--------------------------------------------------
D--------------------------------------------------

  A
E--------------------------------------
B--------------------------------------
G--------------------------------------
d------2-4-2---------2-4-2-------------
A--0-4-------4---0-4-------4-----------
D--------------------------------------

Te vi platicando con el......

CHORDS:
    DADGBE
A   002220
D   000232
F#7 442322
E7  220130
Bm  x24432

Any questions?
Comments