Ceremonial Oath - Dreamsong Chords & Tabs

 

Dreamsong Chords & Tabs

Ceremonial Oath Chords & Tabs

Version: 1 Type: Tab 0 ratings
1 star 2 stars 3 stars 4 stars 5 stars
comments

Dreamsong Tab

   
/---------------------------------------------------------------------------
/ The following is the author's own interpertation of the song, to be used -
/ for studying or private use only                                         -
/---------------------------------------------------------------------------

By: Nicklas Magnusson
E-mail mt35969@tellus.swipnet.se

"Dreamsong" by
CEREMONIAL OATH
>From the album: Carpet
Normal tuning e,a,d,g,b,e
h=hammer on  p=pull off  /=slide  .=palm muting
The only part i'm unsure of is the last chord in riff 3 the rest should be quite exact.

GTR.1  Riff1a
|---------------------------------------------------------|
|---------------------------------------------------------|
|---------------------------------------------------------|
|9---------h------------h-------------h--------------h----|
|7---10---9-10---12--9-9-10--10---10-9-10--9----10--9-10--|
|0-0----0------0---0--0----0-8--8---8----8-7--7---7------7|
|  .    .      .   .  .    .    .   .    .    .   .      .|
|GTR.2                                                    |
|---------------------------------------------------------|
|---------------------------------------------------------|
|---------------------------------------------------------|
|2---------------------------10------------9-------------2|
|2---------------------------10------------9-------------2|
|0---------------------------8-------------7-----------320|

GTR.1 Riff1b
|---------------------------------------------------------|
|---------------------------------------------------------|
|---------------------------------------------------------|
|9---------h------------h-------------h--------------h----|
|7---10---9-10---12--9-9-10--10---10-9-10--9----10--9-10--|
|0-0----0------0---0--0----0-8--8---8----8-7--7---7------7|
|  .    .      .   .  .    .    .   .    .    .   .      .|
|GTR.2                                                    |
|---------------------------------------------------------|
|---------------------------------------------------------|
|----------h------------h-------------h9-------------h----|
|9---9----7-9----10--7-7-9--------9--7----------9---7-9---|
|7---------------------------10------------9--------------|
|0-0----0------0---0--0----0-8--8---8----8-7--7---7------7|
   .    .      .   .  .    .    .   .    .    .   .      .
RIFF.2                                 RIFF.3
Bass transcribed for Guitar            Both guitars
|----------------------------------|   |------------------------------------|
|----------------------------------|   |------------------------------------|
|----------------------------------|   |------------------------------------|
|----------------------------------|   |------------------------------------|
|----77557-----77557-----77557-----|   |---10-8-10---10-8-10---10-8-10-7-9--|
|0-0-------0-0-------0-0------3355-|   |-8---------8---------8---------5-7--|
                                       Trm- - - - - - - - - - - - - - |
RIFF.4
Both guitars    
|--------------------------------|
|--------------------------------|  
|--------------------------------|
|--------------------------------| 
|--7-9-10---7-9-10---7-9-10-5577-|  
|0--------0--------0--------3355-|
Trm- - - - - - - - - - - -|


RIFF.5a GTR.1
|---------------------------------------|
|---------------------------------------|
|---------------------------------------|
|-5-4-7-5--5-4-7-5-----5-4-7-5--5-4-7-5-|
|-3-3-3-3--3-3-3-3-3-5-7-7-7-7--7-7-7-7-|
|---------------------------------------|
|                                       |
|GTR.2                                  |
|---------------------------------------|
|---------------------------------------|
|---------------------------------------|
|-5--------5-----------5--------5-------|
|-3--------3-------3-5-7--------7-------|
|---------------------------------------|
           .                    .

RIFF.5b        solo 1
|---------------------------------------|
|---------------------------------------|
|---------------------------------------|
|-5-4-7-5--5-4-7-5-----5-4-7-5--5-4-7-5-|
|-3-3-3-3--3-3-3-3-3-5-7-7-7-7--7-7-7-7-|
|---------------------------------------|
[ Tab from: http://www.guitartabs.cc/tabs/c/ceremonial_oath/dreamsong_tab.html ]
RIFF.5c GTR.1
|---------------------------------------|------------------------------------------|
|----------------------8-7-8-7--8-7-8-7-|-8-7-8-7--8-7-8-7-------------------------|
|-------------------------7---7----7---7|----7---7----7---7------------------------|
|-5-4-7-5--5-4-7-5----------------------|----------------------5-4--5-4--5-4--5-4--|
|-3-3-3-3--3-3-3-3-3-5------------------|-------------------------5----5----5----5-|
|---------------------------------------|------------------------------------------|
|                                       |                                           
|GTR.2                                  |                                           
|---------------------------------------|------------------------------------------|
|---------------------------------------|----------------------8-7-8-7--8-7-8-7----|
|---------------------------------------|-------------------------7---7----7---7---|
|-5-4-5-4--5-4-5-4-----5-4-5-4--5-4-5-4-|-5-4-7-5--5-4-7-5-------------------------|
|----5---5----5---5-------5---5----5---4|-3-3-3-3--3-3-3-3-3-5---------------------|
|---------------------------------------|------------------------------------------|

                         Double the 2:nd guitar solo
RIFF.5b  solo2         I- - - - - - - - - - - - - - -I
|----------------------------17----------------------|
|----------------------17-20----19-20-17-20-19-15-17-|
|----------------------------------------------------|
|-5-4-7-5--5-4-7-5-----------------------------------|
|-3-3-3-3--3-3-3-3-3-5-------------------------------|
|----------------------------------------------------|


RIFF.5d GTR.1
|-8-7-8-7--8-7-8-7-------------------------|
|----7---7----7---7------------------------|
|----------------------5-4--5-4--5-4--5-4--|
|-------------------------5----5----5----5-|
|------------------------------------------|
|                                          |
|GTR.2                                     |
|------------------------------------------|
|----------------------8-7-8-7--8-7-8-7----|
|-------------------------7---7----7---7---|
|-5-4-7-5--5-4-7-5-------------------------|
|-3-3-3-3--3-3-3-3-3-5---------------------|
|------------------------------------------|


RIFF.6A
|------------------------------------------|
|------------------------------------------|
|------------------------------------------|
|---10-9-10---10-9-10---10-9-10-12-10-9-10-|
|-7---------7---------8--------------------|
|------------------------------------------|
 I- - - - - - - - - - - - - - - - - - - - I
 Trm.

RIFF.6B GTR.1
|-----------------------------------------------|
|-----------------------------------------------|
|-----------------------------------------------|
|---12-11-12---12-11-12----12-11-12-14-12-11-12-|
|-9----------9----------10----------------------|
|-----------------------------------------------|
|                                               |
|GTR.2                                          |
|-----------------------------------------------|
|-----------------------------------------------|
|---11-9--11---11-9--11----11-9--11-12-11-9--11-|
|-----------------------------------------------|
|-9----------9----------10----------------------|
|-----------------------------------------------|
 I- - - - - - - - - - - - - - - - - - - - - - -I
 Trm.

 RIFF.7
|----------------------------|
|----------------------------|
|----------------------------|
|----------------------------|
|----------------------------|
|-000-(x8)-111-(x4)-333-(x4)-|


SOLO 1
|---------------------------------------------------------------------17----------------------|
|-------h--p----------------------------------------------------17-20----19-20-17-20-19-15-17-|
|-/17-16-17-16-14--12~--12-14-16-14-16-17-19-16-17-19-16-17-19--------------------------------|
|---------------------------------------------------------------------------------------------|
|---------------------------------------------------------------------------------------------|
|---------------------------------------------------------------------------------------------|

SOLO 2
|-------------15-12---------------17----------------------|
|-------15-12-------15fb15--17-20----19-20-17-20-19-15-17-|
|----12---------------------------------------------------|
|-14------------------------------------------------------|
|---------------------------------------------------------|
|---------------------------------------------------------|

And the order of the riffs...
Riff 1a x2
Riff 1b x2
Riff 2 x2
Riff 3 x2
Riff 1b x2
Riff 4 x2
Riff 3 x2
Riff 5a x1
Riff 5b x1
Riff 5b x1 with solo 1
Riff 5c x2
Riff 5b x1/2 the second half double solo2
Riff 5d x1
Riff 6a x2
Riff 6b x2
Riff 7 x2
Riff 6b x2
Riff 1a x2

ENJOY!!!
(And don't forget to visit my band Prophanity's homepage at
HTTP://members.tripod.com/~prophanity/prophanity
Comments