Cepeda Andres - El Carpintero Chords & Tabs

 

El Carpintero Chords & Tabs

Cepeda Andres Chords & Tabs

Version: 1 Type: Bass Tab 0 ratings
1 star 2 stars 3 stars 4 stars 5 stars
comments

El Carpintero Bass Tab

El Carpintero
Andres Cepeda

Tabbed by: Manuel Ortiz (krustyo@hotmail.com)

The Solo starts about 8 seconds after the song starts.


Solo  x1
G------------
D------------
A-5-3--------
E-----6-5-3--

Pre-Verso x1
G------------------------------------------------
D------------------------------------------------
A---6-5----6-5----6-5----6-5----6-5----6-5----6-5
E-3------3------3------5------5------5------5----

Solo x1

Verso 1 
yo tuve un amor.....

G--------     G--------
D--------     D--------
A----6--5     A----6--5
E-3------ x3  E-5------ x4

G---------    G--------
D---------    D--------
A---6--5--    A----6--5
E-3------- x4 E-5------ x4	

Verso 2
Cepillo para pulir.....

G--------     G--------
D--------     D--------
A----6--5     A----6--5
E-3------ x4  E-5------ x4

G--------     G--------
D--------     D--------
A----6--5     A----6--5
E-3------ x4  E-5------ x4
[ Tab from: http://www.guitartabs.cc/tabs/c/cepeda_andres/el_carpintero_btab.html ]
G--------     
D--------      
A----6--5     
E-3------ x1


Punteo

G---7---77     G---------
D-5-------     D---7---77
A-----5---     A-5-------
E--------- x3  E-----5--- x3


Solo x1

Pre-verso
Carpintero de tu piel.....

G------------------------------------------------
D------------------------------------------------
A---6-5----6-5----6-5----6-5----6-5----6-5----6-5
E-3------3------3------5------5------5------5----


Puente
G--------     G--------
D--------     D--------
A----6--5     A----6--5
E-3------ x4  E-5------ x4


Verso 3
La Rumba es en.....

G--------     G--------    G----------
D--------     D--------    D----------
A----6--5     A----6--5    A----6----5
E-3------ x4  E-5------ x2 E-5-------- X1


Final
G-------- |    
D-------- |    
A---5---- |    
E-33----- |  


The song is perfect, you just have to do the timing although here is
somewhat correct. 

Questions or Comments: krustyo@hotmail.com






	
	

	



Comments