Cemetary - Sweet Tragedy Chords & Tabs

 

Sweet Tragedy Chords & Tabs

Cemetary Chords & Tabs

Version: 1 Type: Tab 0 ratings
1 star 2 stars 3 stars 4 stars 5 stars
comments

Sweet Tragedy Tab

CEMETARY-Sweet Tragedy
from the BLACK MARK album "Black vanity"
        transcribed by Haris Durakovic

Short drum intro

Intro and refrain
|----------------------------------------------------------------------------//
|----------------------------------------------------------------------------//
|----------------------------------------------------------------------------// Rhythm
|-9-----10------7-----5------------------------------------------------------// 
|-7-----7-------5-----3------------------------------------------------------//
|----0-------0-----0---------------------------------------------------------//
     .       .     .


|-7p3-7p3-7p3-7p3-7p3--------------------------------------------------------//
|----------------------------------------------------------------------------//
|----------------------------------------------------------------------------//
|----------------------------------------------------------------------------// Lead
|----------------------------------------------------------------------------//
|----------------------------------------------------------------------------//


Riff 1
|----------------------------------------------------------------------------//
|----------------------------------------------------------------------------//
|----------------------------------------------------------------------------// both
|-2-----------------2--4--7--5--10------------------12--14-------------------// guitars
|-2-----------------2--4--7--5--10-------------9----12--14-------------------//
|-0--0-0-0-0-0-0-0--0--2--5--3--8---8-8-8-8-8--8----10--12-------------------//
     . . . . . . .                  . . . . .


Bass bridge before solo (with flanger and stuff)
|-----------------------------|-----------------------------------------------//
|-----------------------------|-----------------------------------------------//
|-----------------------------|-----------------------------------------------//
|-----------------------------|-----------------------------------------------//
|-----------------------------|-----------------------------------------------//
|-0--7--5--3--0--0--8--0--10--|--0--7--5--3--0--0--7--0--8--0--10-------------//

[ Tab from: http://www.guitartabs.cc/tabs/c/cemetary/sweet_tragedy_tab.html ]
Rhythm under solo
|----------------------------------------|-----------------------------------//
|----------------------------------------|-----------------------------------//
|----------------------------------------|-----------------------------------// 
|-2--9--7--5--2--2--10--2--12------------|--2--9--7--5--2--9--2--10--2--12---//
|-2--9--7--5--2--2--10--2--12------------|--2--9--7--5--2--9--2--10--2--12---//
|-0--7--5--3--0--0--8---0--10--10-10-10--|--0--7--5--3--0--7--0--8---0--10---//
                                .  .  .


Solo
|-17h19p17h19p17h19p17~-15---------------------------------------------------//
|--------------------------19-17-13h15p13~-15h17p15~-------------------------//
|----------------------------------------------------------------------------//
|----------------------------------------------------------------------------//
|----------------------------------------------------------------------------//
|----------------------------------------------------------------------------//


|-------19-------17----------12----------------------------------------------//
|-17-17----17-15----13-12-13----15-13-12----12-------------------------------//
|----------------------------------------14-----------12-14bh-14bh-12~-------//
|----------------------------------------------14--14------------------------//
|----------------------------------------------------------------------------//
|----------------------------------------------------------------------------//



|----------------------------------------------------------------------------//
|----------------------------------------------------------------------------//
|-11--12p11---------------------------12h14-16h17-19-17-16~-19~-21~----------//
|-----------14--12-10--9h10p9~--14h16----------------------------------------//
|----------------------------------------------------------------------------//
|----------------------------------------------------------------------------//


|-------------------//
|-19b(20)b19--17~~--//
|-------------------//
|-------------------//
|-------------------//
|-------------------//


Structure:

Intro:          4x
Riff 1:         4x
Refrain:        4x
Riff 1:         4x
Refrain:        4x
Bass bridge:    (3x)
Solo Rhythm:    2x
Refrain:        8x and let it fade out!


This classic Gothic Metal track is for everyone who is totally disappointed from SUNDOWN!
My last words: let's pray for Chuck that he becomes fit and is able to crush our spirits!
No matter if it's DEATH or CONTROL DENIED! Chuck is too important for that scene so that 
we can't miss him!
I've got an address for sending him cards: Chuck Schuldiner
                                           c/o Nuclear Blast America
                                           PO Box 1074
                                           New York NY 10013
Comments