Cemetary - Bitter Seed Chords & Tabs

 

Bitter Seed Chords & Tabs

Cemetary Chords & Tabs

Version: 1 Type: Tab 0 ratings
1 star 2 stars 3 stars 4 stars 5 stars
comments

Bitter Seed Tab

CEMETARY - Bitter Seed
from the BLACK MARK album "Black Vanity"
        tabbed by HARIS DURAKOVIC

Lead guitar
Riff 1                      Riff 2
|--------------------------|---------------------|
|--------------------------|---------------------|
|--------------------------|-5----------5--------|
|-10~-10~------------------|-5---3-6----5-3-6-5--|
|---------10-11-10h11p10-8-|-3---3-6----3-3-6-5--|
|--------------------------|---1-1-4-44---1-4-3--|
                               .     ..

Refrain
|----------------------------------------------------------------------------|
|----------------------------------------------------------------------------|
|----------------------------------------------------------------------------|
|----------------------------------------------------------------------------|
|-7-10-9h10p9----7-10-9h10p9------10-9h10p9------10-9h10p9-------------------|
|-------------10-------------10-8-----------8-10-----------10----------------|


Solo
|-21~------------------------------------------------------------------------|
|-----19-17---------------------------------------------------------5-7h10-7~|
|-----------19-18h19p18-16---------------------------------------------------|
|--------------------------19-18-16-11~~-11\9-999\7-777\6-666\4-44-2---------|
|----------------------------------------------------------------------------|
|----------------------------------------------------------------------------|

[ Tab from: http://www.guitartabs.cc/tabs/c/cemetary/bitter_seed_tab.html ]
|-7-12-9-7-12-7-9~-----------------------------------------------------------|
|------------------12-10-9---------------------------------------------------|
|--------------------------11-9-11p9-6~~--4-2-1---2p1-----2------------------|
|-----------------------------------------------4-----4-2---4~~--------------|
|----------------------------------------------------------------------------|
|----------------------------------------------------------------------------|


Riff 3
|------------------------|------------------------|
|------------------------|------------------------|
|-11~--------------------|-11~--------------------|
|-----11-12~-11-9-12-11~-|-----11-12~-11-9--------|
|------------------------|-----------------12-9~--|
|------------------------|------------------------|


Rhythm guitar
Riff 1 and 2 the same as lead guitar 
Refrain
|--------------|
|--------------|
|------5----7--|
|-2----5----7--|
|-2----3----5--|
|-0------------|


Riff 3
|--------------------|-------------------|
|--------------------|-------------------|
|--------------------|-------------------|
|--------------------|-------------------|
|-9~-----------------|-9~----------------|
|----9-10~-9-7-10-9~-|----9-10~-9-7-5-2~-|


Rhythm on solo
|-------------------------------------------------|
|-------------------------------------------------|
|-11----------------------11----------------------|
|-11-11-12-11-9-12-11-----11-11-12-11-9-7-4-------|
|-9--11-12-11-9-12-11-----9--11-12-11-9-7-4-------|
|----9--10-9--7-10-9--999----9--10-9--7-5-2--222--|
                      ...                    ...

So, that's nearly all! Their might be any mistakes in the solo! So if you find some mail me:
harry@pfaffenwinkel.de
Comments