Celtic Frost - Into The Crypts Of Rays Chords & Tabs

 

Into The Crypts Of Rays Chords & Tabs

Celtic Frost Chords & Tabs

Version: 1 Type: Tab 0 ratings
1 star 2 stars 3 stars 4 stars 5 stars
comments

Into The Crypts Of Rays Tab

   
Band: Celtic Frost
Song: Into the Crypts of Rays
Album: "Morbid Tales" / or "Emperor's Return" EP

Tabbed by Black Metaller: blackmetaller666@hotmail.com

Tuning: Standard (EADGBE)

Riff A
|---------------------------------------------|
|---------------------------------------------|
|---------------------------------------------|
|---------------------------------------------|
|-9-9-9-9-8--9-9-9-9-8--9-9-9-9-8--9-9-9-9-8--|
|-7-7-7-7-6--7-7-7-7-6--7-7-7-7-6--7-7-7-7-6--|

Riff B
|---------------------------------------------|
|---------------------------------------------|
|---------------------------------------------|
|---------------------------------------------|
|-7-9-3-3-3-3-3--7-9-12-12-12-12-12-----------|
|-5-7-1-1-1-1-1--5-7-10-10-10-10-10-----------|

Riff C (Variation on Riff A)
|---------------------------------------------|
|---------------------------------------------|
|---------------------------------------------|
|---------------------------------------------|
|-9-9-9-9-7--9-9-9-9-7--9-9-9-9-7--9-9-9-9-7--|
|-7-7-7-7-5--7-7-7-7-5--7-7-7-7-5--7-7-7-7-5--|

Riff D
|---------------------------------------------|
|---------------------------------------------|
|---------------------------------------------|
|---------------------------------------------|
|-444444444444444444444444-2-2-5--------------|
|-222222222222222222222222-0-0-3--------------|

Riff E
|---------------------------------------------|
|---------------------------------------------|
|---------------------------------------------|
|---------------------------------------------|
|-99999999-10-11-12---------------------------|
|-77777777-8--9--10---------------------------|

Riff F (Variation of Riff E)
|---------------------------------------------|
|---------------------------------------------|
|---------------------------------------------|
|---------------------------------------------|
|-99999999-12-11-10---------------------------|
|-77777777-10-9--8----------------------------|
[ Tab from: http://www.guitartabs.cc/tabs/c/celtic_frost/into_the_crypts_of_rays_tab.html ]
Riff G
|---------------------------------------------|
|---------------------------------------------|
|---------------------------------------------|
|---------------------------------------------|
|-7777777777777777-10-9-8-9-10----------------|
|-5555555555555555-8--7-6-7-8-----------------|

Riff H (Variation on Riff G)
|---------------------------------------------|
|---------------------------------------------|
|---------------------------------------------|
|---------------------------------------------|
|-7777777777777777-10-9-8-9-------------------|
|-5555555555555555-8--7-6-7-------------------|

Riff I
|---------------------------------------------|
|---------------------------------------------|
|----------4-4-4------------------------------|
|----------2-2-2------------------------------|
|-22222222------------------------------------|
|-00000000------------------------------------|

Riff J (variation on Riff I)
|---------------------------------------------|
|---------------------------------------------|
|----------4----------------------------------|
|----------2----------------------------------|
|-22222222------------------------------------|
|-00000000------------------------------------|

Riff K
|---------------------------------------------|
|---------------------------------------------|
|---------------------------------------------|
|-----3-----4-----3-----4---------------------|
|-2-2-1-2-2-2-2-2-1-2-2-2---------------------|
|-0-0---0-0---0-0---0-0-----------------------|

Riff L
|---------------------------------------------|
|---------------------------------------------|
|---------------------------------------------|
|---------------------------------------------|
|-2--2--2--5---2--2--2--7---2--2--2--9-8-7----|
|-0--0--0--3---0--0--0--5---0--0--0--7-6-5----|

Riff L (continued)
|---------------------------------------------|
|---------------------------------------------|
|---------------------------------------------|
|---------------------------------------------|
|-2--2--2--5---2--2--2--7---2--2--2--11-10-9--|
|-0--0--0--3---0--0--0--5---0--0--0--9--8--7--|

Structure
Riff A x 1
Riff B x 2
Riff C x 1
Riff D x 4
Riff E x 3
Riff F x 1
Riff G x 3
Riff H x 1
Riff C x 1
Riff D x 4
Riff E x 3
Riff F x 1
Riff G x 3
Riff H x 1
Riff I x 4
Riff K x 8
Riff L x 2
Riff C x 1
Riff D x 4
Riff C x 1
Riff D x 4
Riff E x 3
Riff F x 1
Riff G x 3
Riff H x 1
Riff C x 4
Riff D x 4
Riff E x 3
Riff F x 1
Riff G x 3
Riff H x 1
Riff I x 3
Riff J x 1
Comments