Celine Dion - Think Twice Chords & Tabs

 

Think Twice Chords & Tabs

Celine Dion Chords & Tabs

Version: 1 Type: Tab 0 ratings
1 star 2 stars 3 stars 4 stars 5 stars
comments

Think Twice Tab

От: for www.ultimate-guitar.com 
Кому: 
Тема: New Tabs
Дата: 16 июля 2000 г. 22:17

CELINE DION - THINK TWICE.
 Tabbed by andrew@woodys4.freeserve.co.uk.
  
Well, this is my first attemp at writing tabs, but i'm only 15.
If you find any errors, think something should be changed or if 
you have any requests, email me at andrew@woodys4.freeserve.co.uk

Celine Dion - Think Twice  Andy Hill + Pete Sinfield


 0:08             0:12              0:20       0:27 0:28

e--------   -17-17-17-15---------- --------13-15- ----- ---
b-8^(10)-   -------------18-15-18- -13-15-------- ----- ---
g--------   ---------------------- -------------- -10-- ---
d--------   ---------------------- -------------- ----- ---
a--------   ---------------------- -------------- ----- -8-
e--------   ---------------------- -------------- ----- ---

     0:34        0:42         0:49            1:28              

e--------13-15- -8^(10) -8----8-8^(10)- --------------
b-13-15-------- ------- ---10---------- -8^10r8p6-6h8-
g-------------- ------- --------------- --------------
d-------------- ------- --------------- --------------
a-------------- ------- --------------- --------------
e-------------  ------- --------------- --------------

    1:39        1:46      1:53         2:01
 
e----------- --------- -------- ------10----10----10-
b-6-6h8p6-5- -5s6-6--- -(10)r8- -8s10----10----10----
g----------- -------7- -------- ---------------------
d----------- --------- -------- ---------------------
a----------- --------- -------- ---------------------
e----------- --------- -------- ---------------------

ON 2nd CHORUS BEFORE SOLO 2:15-16

With LOTS of DISTORTION
[ Tab from: http://www.guitartabs.cc/tabs/c/celine_dion/think_twice_tab.html ]
e---|---|---|---|---|---|---|---|---|---|---|---|
b---|---|---|---|---|---|---|---|---|---|---|---|
g---|---|---|---|---|---|---|---|---|---|---|---|
d---|-3-|-5-|---|-2-|-3-|-5-|---|-3-|-5-|---|---|
a-3-|-1-|-3-|-3-|-0-|-1-|-3-|-3-|-1-|-3-|-5-|-8-|
e-1-|---|---|-1-|---|---|---|-1-|---|---|-3-|-6-|


SOLO:      2:44

e|---------------------------------------------|                     
b|---------------------------------------------|
g|-12^(14)12^(14)12^(14)^12(14)12^(14)-rp10----|
d|------------------------------------------12-|
a|---------------------------------------------|
e|---------------------------------------------|


e|---------------------------------|
b|---------------------10----------|
g|----12-10-12---10-12----12-------|
d|-10--------------------------12\-|
a|---------------------------------|
e|---------------------------------|


e|------10----10-----------13--|
b|-8/10----10----15-13------15-|
g|---------------------14------|
d|-----------------------------|
a|-----------------------------|
e|-----------------------------|

               Tremolo

e----------15^^^15PO13----------------------------- 
b-15-13----------------15^^^15PO13-----------------
g-------14--------------------------14^14PO12------
d----------------------------------------------12^^
a--------------------------------------------------
e--------------------------------------------------

  2:58                      3:02        3:06     
                            
e|------------------------ ------ -----------------
b|------------------------ ------ -----------------
g|------------------------ ------ -----------------
d|-5------7--8------------ --10-- --5----7--8---10-
a|-5------7--8------------ --10-- --5----7--8---10-
e|-3------5--6------------ ---8-- --3----5--6----8-


Chorus and fade out is the same as in the second chorus, except
untill the middle of the second line of the chorus. Listen to the
track and you'll see what I mean.
 
:: Ultimate Guitar Archive :: 
http://www.ultimate-guitar.com 

Comments