Celine Dion - My Heart Will Go On Chords & Tabs

 

My Heart Will Go On Chords & Tabs

Celine Dion Chords & Tabs

Version: 8 Type: Tab

My Heart Will Go On Tab

   
MY HEART WILL GO ON
As recorded by Celine Dion
(From the 1997 Album TITANIC SOUNDTRACK)


Transcribed by Mr DK

 Words by Will Jennings Music by James Horner
Arranged by Eric Roche
 

Gtr I (E A D G B E) - 'Untitled'


 Verse 1
  Q=104
  E                   Bsus4              A                    B7
 4/4
  Gtr I
  Q  E  E  +Q   E E   +Q   E E +Q.   E   Q  E E +E  E +E  E   +H     H
|----0-(0)-(0)------|------------------|------0-(0)-------4-|-(4)---------|
|-5-----5--(5)--5-4-|-(4)s=5-5-(5)---5-|-4s=5-------7-(7)---|--------7----|
|-------------------|------------------|--------------------|-------------|
|-------------------|------------------|--------------------|-------------|
|-------------------|------------------|--------------------|-------------|
|-------------------|------------------|--------------------|-------------|


  E                   Bsus4             Asus2               B5
  Q  E  E  +Q   E E   +Q   H     E  E   +W           +H       H
|----0-(0)-(0)------|-----------------|------------|----------------||
|-5-----5--(5)--5-4-|-(4)--5----(0)-0-|-(0)--------|-(0)----<12>----||
|-------------------|-----------------|------------|----------------||
|-------------------|-----------------|------------|----------------||
|-------------------|-----------------|------------|----------------||
|-------------------|-----------------|------------|----------------||


 Verse 2
  E                    Bsus4
  Q  E E +E  E +E  E   +Q   E E +Q.   E
|-0--0-0-(0)-0-(0)---|------0-0-(0)-----|
|------------------4-|-(4)------------4-|
|-1------------------|------------------|
|--------------------|--4---------------|
|--------------------|------------------|
|-0------------------|-(0)--------------|
  W                     W


  A                        B7
  +Q   E E  E   E  +E  E   +H       H
|------0-0--0---2--(2)-4-|-(4)------2----|
|-(4)--------------------|---------------|
|--------1-(1)-(1)-------|-------2-------|
|------------------------|-----4---------|
|--0---------------------|--2------------|
|------------------------|---------------|
   W                        E  E Q  H


  E                    Bsus4           Asus2                         B5
  Q  E E +E  E +E  E   +Q   H    E E   +H        H            +W
|-0--0-0-(0)-0-(0)---|------0--------|--------------------0-|-(0)---------||
|------------------4-|-(4)-------0-0-|-(0)----------0-(0)---|-------------||
|-1------------------|---------------|--------2-(2)---------|-------------||
|--------------------|--4------------|------2---------------|-------------||
|--------------------|---------------|--0-------------------|--------2----||
|-0------------------|-(0)-----------|----------------------|-------------||
  W                     W               Q   E E +E  E +E  E    H     H


 Chorus
  C#m7               B/D#               Aadd9            B13
  H    +Q     E  E   +Q.    E  H        Q.   E E E E E   +H         Q   E E
|------------------|------------------|-7----5---4---2-|-(2)--------4---5-4--|
|-5----(5)----5--7-|-(7)--------------|----------------|---------4-(4)-------|
|----------4-(4)---|--------4-(4)--4--|-6--------------|-------2-------------|
|-6-----6----------|------4-----------|----------------|-----4---------------|
|-4----------------|--6---------------|-0--------------|--2------------------|
|------------------|------------------|----------------|---------------------|
  H     E  E +Q       Q   E E +Q   Q    W                 E  E E E +H


  C#m7                B
  +H        Q   E E   +H        Q   Q
|-(4)---------------|------------------|
|-----------7---5-4-|-(4)-------5---4--|
|-------4--(4)------|-------4--(4)-----|
|-----6-------------|-----4------------|
|--4----------------|------------------|
|-------------------|--7---------------|
   E  E Q  +H          E  E Q  +H


  A          B5         C#m7
  W          W          H    +Q     E  E
|----------|----------|-------------------|
|----------|----------|-5----(5)----5--7--|
|-6--------|----------|----------4-(4)----|
|----------|----------|-6-----6-----------|
|----------|----------|-4-----------------|
|-5--------|-7--------|-------------------|
  W                     H     E  E +Q


  B/D#               E/A  A   E       B13                  C#m7
  +Q.    E  H        Q.   E E E E E   +H         Q   E E   +H        Q   E E
|------------------|-7----5---4---2-|-(2)--------4---5-4-|-(4)----------------|
|-(7)--------------|-9----5---5-----|---------4-(4)------|-----------7---5-4--|
|--------4-(4)--4--|-9----6---4-----|-------2------------|-------4--(4)-------|
|------4-----------|----------------|-----4--------------|-----6--------------|
|--6---------------|-0--------------|--2-----------------|--4-----------------|
|------------------|----------------|--------------------|--------------------|
   Q   E E +Q   Q    H      H          E  E E E +H          E  E Q  +H


  G#m7               B/A               B7
  +Q    H       Q     Q  E E E E E E   +H        H
|------------------|---------------4-|-(4)-------2-----||
|-(4)---5-------4--|-^4--5-5---7-----|-----------------||
|------------------|-^4--6-6---8-----|-------2--(2)----||
|-----4-6--(6)-----|-----------------|-----4-----------||
|------------------|--0--------------|--2--------------||
|--4---------------|-----------------|-----------------||
   E  E Q  +H         W                 E  E Q  +H


   Interlude
    C#m               B5                 Amaj7                  B5
    H.      +E  S S   E E +Q   A Q  Q    Q.   E +E  A E +E  E    W
||------------------|------------------|----------------------|---------||
||o-----------------|---0-(0)-------0--|------0-(0)-----------|--------o||
||--1-------(1)-----|------------------|-6--------------------|---------||
||--2-------(2)-4p2-|-4--------4s6-----|-6----------4s6-(6)s4-|-(4)-----||
||o-4-------(4)-----|-2----------------|-0--------------------|--2-----o||
||------------------|------------------|----------------------|---------||
                                         W


 Verse 3
  E                    Bsus4
  Q  E E +E  E +E  E   +Q     E  E +Q.   E
|-0--0-0-(0)-0-(0)---|--------0--0-(0)-----|
|------------------4-|-(4)---------------4-|
|-1------------------|---------------------|
|--------------------|-----4-(4)-----------|
|--------------------|--2------------------|
|-0------------------|---------------------|
  W                     E  E +H.


  A                         B7
  +Q     E  E +E  E +E  E   +H         H
|--------0--0-(0)-2-(2)-4-|-(4)--------2-----|
|-(4)---------------------|---------4-(4)----|
|-------------------------|-------2----------|
|-----2-(2)---------------|-----4------------|
|--0----------------------|--2---------------|
|-------------------------|------------------|
   E  E +H.                  E  E E E +H


  E                    Bsus4                     A5                     B5
  Q  E E +E  E +E  E   +Q     E  E +E  E +E  E   +W               H     H
|-0--0-0-(0)-0-(0)---|--------0--0-(0)---------|---------------|-------------||
|------------------4-|-(4)-------------0-(0)-0-|-(0)-----------|-------------||
|-1------------------|-------------------------|-------2-------|-------------||
|--------------------|-----4-(4)---------------|-----2---------|-------------||
|--------------------|--2----------------------|--0------------|-(0)----2----||
|-0------------------|-------------------------|---------------|-------------||
  W                     E  E +H.                  E  E H.


 Verse 4
  E                    Bsus4
  Q  E E +E  E +E  E   +Q     E  E +Q.   E
|-0--0-0-(0)-0-(0)---|--------0--0-(0)-----|
|------------------4-|-(4)---------------4-|
|-1------------------|---------------------|
|--------------------|-----4-(4)-----------|
|--------------------|--2------------------|
|-0------------------|---------------------|
  W                     E  E +H.


  A                         B7
  +Q     E  E +E  E +E  E   +H         H
|--------0--0-(0)-2-(2)-4-|-(4)--------2-----|
|-(4)---------------------|---------4-(4)----|
|-------------------------|-------2----------|
|-----2-(2)---------------|-----4------------|
|--0----------------------|--2---------------|
|-------------------------|------------------|
   E  E +H.                  E  E E E +H


  E                    Bsus4
  Q  E E +E  E +E  E   +Q     E  E +E  E +E  E
|-0--0-0-(0)-0-(0)---|--------0--0-(0)---------|
|------------------4-|-(4)-------------0-(0)-0-|
|-1------------------|-------------------------|
|--------------------|-----4-(4)---------------|
|--------------------|--2----------------------|
|-0------------------|-------------------------|
  W                     E  E +H.

[ Tab from: http://www.guitartabs.cc/tabs/c/celine_dion/my_heart_will_go_on_tab_ver_8.html ]
  Asus2                             B5
                           <
   E  E E E +E  E +E  E    E  E E E E E E E
|---------------0-(0)---|--------------------||
|-(0)-----0-(0)-------0-|-(0)-----0-------0--||
|-------2---------------|-------2-------4----||
|-----2-----------------|-----2-------4------||
|--0--------------------|--0--------2--------||
|-----------------------|--------------------||


 Chorus
  C#m7               B/D#               E/A  A   E       B13
  H    +Q     E  E   +Q.    E  H        Q.   E E E E E   +H         Q   E E
|------------------|------------------|-7----5---4---2-|-(2)--------4---5-4--|
|-5----(5)----5--7-|-(7)--------------|-9----5---5-----|---------4-(4)-------|
|----------4-(4)---|--------4-(4)--4--|-9----6---4-----|-------2-------------|
|-6-----6----------|------4-----------|----------------|-----4---------------|
|-4----------------|--6---------------|-0--------------|--2------------------|
|------------------|------------------|----------------|---------------------|
  H     E  E +Q       Q   E E +Q   Q    H      H          E  E E E +H


  C#m7                B
  +H        Q   E E   +H        Q   Q
|-(4)---------------|------------------|
|-----------7---5-4-|-(4)-------5---4--|
|-------4--(4)------|-------4--(4)-----|
|-----6-------------|-----4------------|
|--4----------------|------------------|
|-------------------|--7---------------|
   E  E Q  +H          E  E Q  +H


  A          B5         C#m7
  W          W          H    +Q     E  E
|----------|----------|-------------------|
|----------|----------|-5----(5)----5--7--|
|-6--------|----------|----------4-(4)----|
|----------|----------|-6-----6-----------|
|----------|----------|-4-----------------|
|-5--------|-7--------|-------------------|
  W                     H     E  E +Q


  B/D#               E/A  A   E       B13                  C#m7
  +Q.    E  H        Q.   E E E E E   +H         Q   E E   +H        Q   E E
|------------------|-7----5---4---2-|-(2)--------4---5-4-|-(4)----------------|
|-(7)--------------|-9----5---5-----|---------4-(4)------|-----------7---5-4--|
|--------4-(4)--4--|-9----6---4-----|-------2------------|-------4--(4)-------|
|------4-----------|----------------|-----4--------------|-----6--------------|
|--6---------------|-0--------------|--2-----------------|--4-----------------|
|------------------|----------------|--------------------|--------------------|
   Q   E E +Q   Q    H      H          E  E E E +H          E  E Q  +H


  G#m7               B/A               B7
  +Q    H       Q     Q  E E E E E E   +H        H
|------------------|---------------4-|-(4)-------2-----||
|-(4)---5-------4--|-^4--5-5---7-----|-----------------||
|------------------|-^4--6-6---8-----|-------2--(2)----||
|-----4-6--(6)-----|-----------------|-----4-----------||
|------------------|--0--------------|--2--------------||
|--4---------------|-----------------|-----------------||
   E  E Q  +H         W                 E  E Q  +H


 Interlude
  C#m               B5                 Amaj7                  B5
  H.      +E  S S   E E +Q   A Q  Q    Q.   E +E  A E +E  E    W
|-----------------|------------------|----------------------|--------|
|-----------------|---0-(0)-------0--|------0-(0)-----------|--------|
|-1-------(1)-----|------------------|-6--------------------|--------|
|-2-------(2)-4p2-|-4--------4s6-----|-6----------4s6-(6)s4-|-(4)----|
|-4-------(4)-----|-2----------------|-0--------------------|--2-----|
|-----------------|------------------|----------------------|--------|
                                       W


  C#m               B5                 Amaj7                  G#m
  H.      +E  S S   E E +Q   A Q  Q    Q.   E +E  A E +E  E    W
|-----------------|------------------|----------------------|--------||
|-----------------|---0-(0)-------0--|------0-(0)-----------|--------||
|-1-------(1)-----|------------------|-6--------------------|--------||
|-2-------(2)-4p2-|-4--------4s6-----|-6----------4s6-(6)s4-|-(4)----||
|-4-------(4)-----|-2----------------|-0--------------------|--------||
|-----------------|------------------|----------------------|--4-----||
                                       W


 Chorus (Key Change)
  Fm                   Gm
  H      +E  E +E  E   +H       +E  E +Q
|-4------(4)-4-(4)-6-|-(6)------(6)--------|
|--------------------|--------------4-(4)--|
|------1-(1)---------|--------3-(3)--------|
|----3---------------|------5--------------|
|--------------------|---------------------|
|-1------------------|--3------------------|
  Q  E E +Q.       E    Q   E E +H


  Dbsus2                     Eb13
   Q.      E +E   E  +E  E   +H        Q   E E
|-11-------9-(9)---------6-|-(6)-------8---9-8--|
|--------9---(9)-13-(13)---|--------------------|
|-----10-------------------|-------8--(8)-------|
|--------------------------|-----8--------------|
|--------------------------|--6-----------------|
|--9-----------------------|--------------------|
   E   E Q   +Q.         E    E  E Q  +H


  Fm7                  Eb
  +H         Q   E E   +Q     Q   +E  E +E   E
|-(8)----------------|-------------------------|
|-----------11---9-8-|-(8)----9---(9)-8-(8)----|
|--------8--(8)------|----------------------10-|
|-----10-------------|-----8-(8)--(8)----------|
|--8-----------------|-------------------------|
|--------------------|-11----------------------|
   E   E Q  +Q.    E    E  E +Q   +Q.        E


  Dbadd9                                    Ebsus2
   +Q.        E   Q.       E   +H           H
|--------------------------9-|-(9)-------------------|
|--------------------9-(9)---|--------------------6--|
|-(10)-------10-(10)---------|-----------10-----8----|
|---------13-----------------|--------13------8------|
|------11--------------------|-----11-------6--------|
|---9------------------------|--9--------------------|
    E   E  E  E  +E  E +E  E    E   E  E  E E E E E


  Fm                     Gm
  H       +E  E +E   E    +H        +E  E +Q
|----------------------|-----------------------|
|-9-------(9)-9-(9)-11-|-(11)------(11)--------|
|-------8-(8)----------|---------8--(8)-8-(8)--|
|----10----------------|-------8---------------|
|-8--------------------|--10-------------------|
|----------------------|-----------------------|
  Q   E E +H               Q   E E  +E  E  Q


  Dbsus2                     Eb13
   Q.      E +E   E  +E  E   +H        Q   E E
|-11-------9-(9)---------6-|-(6)-------8---9-8--|
|--------9---(9)-13-(13)---|--------------------|
|-----10-------------------|-------8--(8)-------|
|--------------------------|-----8--------------|
|--------------------------|--6-----------------|
|--9-----------------------|--------------------|
   E   E Q   +Q.         E    E  E Q  +H


  Fm7                  Ebsus4/Cb
  +H         Q   E E   +Q    Q  +Q   Q
|-(8)----------------|------------------|
|-----------11---9-8-|-(8)---9--(9)--8--|
|--------8--(8)------|-------8--(8)-----|
|-----10-------------|-----8------------|
|--8-----------------|------------------|
|--------------------|--8---------------|
   E   E Q  +Q.    E    E  E Q  +H


  Ebsus4/Db                 Ebsus2            Ab
  Q    E  E +E   E  +E  E   +H        H        W
|-----------------------8-|-(8)-------6-----|-^4----*|
|-8----9--9-(9)-11-(11)---|-------6--(6)----|-^4----*|
|---------8-(8)-----------|-----8-----------|-^5----*|
|---8-(8)-----------------|-----------------|-------*|
|-------------------------|--6--------------|-------*|
|-9-----------------------|-----------------|-^4----*|
  E E +E  E +Q.         E    E  E Q  +H




--------------------------------------------------------------------------------


Duration Legend
---------------
W - whole; H - half; Q - quarter; E - 8th; S - 16th; T - 32nd; X - 64th; a - acciaccatura
+ - note tied to previous; . - note dotted; .. - note double dotted
Uncapitalized letters represent notes that are staccato (1/2 duration)
Irregular groupings are notated above the duration line
Duration letters will always appear directly above the note/fret number it represents the
duration for.  Duration letters with no fret number below them represent rests.  Multi-
bar rests are notated in the form Wxn, where n is the number of bars to rest for.  Low
melody durations appear below the staff

Tablature Legend
----------------
 h   - hammer-on
 p   - pull-off
 b   - bend
 pb  - pre-bend
 r   - bend release (if no number after the r, then release immediately)
 /\  - slide into or out of (from/to "nowhere")
 s   - legato slide
 S   - shift slide
 - natural harmonic
[n]  - artificial harmonic
n(n) - tapped harmonic
 ~   - vibrato
 tr  - trill
 T   - tap
 TP  - trem. picking
 PM  - palm muting
\n/  - tremolo bar dip; n = amount to dip
 \n  - tremolo bar down
 n/  - tremolo bar up
/n\  - tremolo bar inverted dip
 =   - hold bend; also acts as connecting device for hammers/pulls
 <> - volume swell (louder/softer)
 x   - on rhythm slash represents muted slash
 o   - on rhythm slash represents single note slash

Misc Legend
-----------
 |  - bar
||  - double bar
||o - repeat start
o|| - repeat end
*|  - double bar (ending)
 :  - bar (freetime)
 $  - Segno
 &  - Coda
Tempo markers -  = BPM(8/16=s8/s16), where s8 = swing 8ths, s16 = swing 16ths