Celine Dion - My Heart Will Go On Chords & Tabs

 

My Heart Will Go On Chords & Tabs

Celine Dion Chords & Tabs

Version: 5 Type: Tab 0 ratings
1 star 2 stars 3 stars 4 stars 5 stars
comments

My Heart Will Go On Tab

Celine Dion
My Heart Will Go On
Tabbed By: PaRaBoLaTooL420

I've been looking for tabs to the song for a long time - couldn't find any,
just chords.  So here is pretty much the whole song in tab form.

Intro

E-------4-----------7----5-4-0-------------4--------7--
B---5-7-------7-5-7------------2---0---5-7----7-5-7----
G--------------------------------2---------------------
D------------------------------------------------------
A------------------------------------------------------
E------------------------------------------------------

E-----7-9----7-----2--
B---9-----------------
G---------------------
D---------------------
A---------------------
E---------------------


E-------4----------7-----5-4-0-------------4----------7-
B---5-7------7-5-7-------------2---0---5-7------7-5-7---
G--------------------------------2----------------------
D-------------------------------------------------------
A-------------------------------------------------------
E-------------------------------------------------------

E------------------2----4--
B-------2-4---5------------
G-----4--------------------
D---6----------------------
A--------------------------
E--------------------------

Pre-Chorus
[ Tab from: http://www.guitartabs.cc/tabs/c/celine_dion/my_heart_will_go_on_tab_ver_5.html ]
E-------------------------------------------------------
B----------------------------9--------------------------
G---9-9-9--9-8-9---9-8-9---11--11----9-9-9--9-8-9---8---
D-----------------------------------------------------9-
A-------------------------------------------------------
E-------------------------------------------------------

Chorus

E--------------------------------------------------------
B---5-----7-------12-10-9-7---9-10-9--7--5-4-5--4-0------
G--------------------------------------------------------
D-----------9--------------------------------------------
A--------------------------------------------------------
E--------------------------------------------------------

On second time

E---------------------------------------------------------
B---5---7--------12-10-9-7---9-10-9--7--5-4-5--5-4-5------
G---------------------------------------------------------
D----------9----------------------------------------------
A---------------------------------------------------------
E---------------------------------------------------------

E------------------------
B---7--9--7--5-----------
G------------------------
D------------------------
A------------------------
E------------------------


Thats about it, listen to the song (if you can) for a better grasp of the rhythm.

Any questions e-mail:  zeppelin_2_tool@hotmail.com

Comments or Corrections be sure to post!
Comments