Celine Dion - My Heart Will Go On Chords & Tabs

 

Celine Dion Chords & Tabs

Version: 1 Type: Tab 2 ratings
1 star 2 stars 3 stars 4 stars 5 stars
comments

My Heart Will Go On Tab

   
Hi guys, this is the easiest ever tab from the TITANIC theme or the song My Heart Will Go On (Celine Dion). It's exact bt the whole thng is quite long. The tuning is the standard one EADGBE. With much practice, it'll bcome easier:

Here's the intro, as transcribed from the flute:

[part 1]
E-----------------------------7---5---4---------------------- |
B---5---7---9---7---5---7----------------5----------------- |
G----------------------------------------------6--------4-----|
D---------------------------------------------------7--------- |
A-------------------------------------------------------------- |
B --------------------------------------------------------------|

[part 2]
E------------------------------7---5---7---9---9---9------------------|
B---5---7---9---7---5---7------------------------------7---7---7----|
G-----------------------------------------------------------------------|
D-----------------------------------------------------------------------|
A-----------------------------------------------------------------------|
E-----------------------------------------------------------------------|

The rest of the song (where she starts singin) can b divided into 4 parts & it is normally played with the three lower strings. U'll hav 2 listen 2 the song 2 b able 2 match the words with the music. Here it is:

PART A

E-----------------------------------------------------------------------------------7-----|
B--5---5---5---5---4---5---5---4---5---7---9---7---5---5---5---5---4---5-------0-|
G -----------------------------------------------------------------------------------------| 
Every night in my dreams, I see you, I feel you, That is how I know you, go on.

PART B
Same as part A bt here the words change:
[ Tab from: http://www.guitartabs.cc/tabs/c/celine_dion/my_heart_will_go_on_tab.html ]
E-----------------------------------------------------------------------------------7-----|
B--5---5---5---5---4---5---5---4---5---7---9---7---5---5---5---5---4---5-------0-|
G -----------------------------------------------------------------------------------------| 
Far across the distance, And spaces between us, You have come to show you, Go on…
PART C

E-----------------7---5---4-------4---5---4-------------------------|
B---5---7---------------------7----------------7---5---4---5---2---|
G------------4--------------------------------------------------------|
Near, Far, Wherever you are, I believe that the heart does, Go on.


PART D

E-----------------7---5---4-------4---5---4---------------------------------------4---------|
B---5---7---------------------7----------------7---5---4---5---5---4---5---7--------7--0-|
G------------4---------------------------------------------------------------------------------|
Once more, you opened the door, And you're here in my heart, And my heart will go on and on.


That's it if you've learnt the 4 parts then u will b able 2 play the whole thng. These r the parts u hav 2 play 4 these pieces:

Love can touch us one time, And last for a lifetime, And never let go till, we're gone. PART A

Love was when I loved you, One true time to hold on to, In my life we'll always, go on. PART B

Near, Far, Wherever you are, I believe that the heart does, go on. 
PART C

Once more, you opened the door, And you're here in my heart, And my heart will go on and on. PART D

You're here, There's nothing I fear, And I know that my heart will go on. 
PART C

 
We'll stay, forever this way, you are safe in my heart, And my heart will go on and on….. PART D.





For the last note in part D, instead of playing one single note, ring these and it will sound best: 
	

Em
E-----------|
B-----------|
G---1------|
D---2------|
A---2------|
E-----------|

Now you play the whole of it and if you can learn the lyrics then you can really play it in parties, functions and other important events. It will b breathtaking and afterwards everyone will congratulate you cause it's a song everyone knows and likes. I've tried it n it really works!!!  ENJOY
Any mistakes, requests or comments, please email me at aakhillpmania@yahoo.com. it is my first tab so hope u like it!!






Comments