Celine Dion - Feliz Navidad Chords & Tabs

 

Celine Dion Chords & Tabs

Version: 1 Type: Bass Tab 0 ratings
1 star 2 stars 3 stars 4 stars 5 stars
comments

Feliz Navidad Bass Tab

   
Feliz_Navidad.btab
Celine_Dion
TablEdited by Poppamies
Tuning : B E A D G 	Time Signature: 4/4

 tempo 140       |       |        |       |       |       |        
|--------------------------------|--------------------------------|
|--------------------------------|--------------------------------|
|0---------------------------0---|--------------------------------|
|--------------------0---2-------|----------------------------0---|
|--------------------------------|--------------------------------|

 |       |       |       |        |       |       |       |        
|--------------------------------|--------------------------------|
|--------------------------------|0-------------------------------|
|0---------------------------0---|------------3-------2-------0---|
|--------------------------------|--------------------------------|
|--------------------------------|--------------------------------|

 |       |       |       |        |       |       |       |        
|--------------------------------|--------------------------------|
|------------------------4/5-7---|7-------------------------------|
|--------------------------------|--------------------0-----------|
|--------------------------------|----------------------------0---|
|--------------------------------|--------------------------------|

 |       |       |       |        |       |   Feliz navi- |        
|--------------------------------|--------------------------------|
|--------------------0-------1---|2---2---------------------------|
|0-----------4-------------------|--------------------------------|
|--------------------------------|--------2-----------------------|
|--------------------------------|--------------------------------|

 dad...  |       |       |        |       |       Feliz navi-      
|--------------------------------|--------------------------------|
|----------------------------0---|--------0---1---2---------------|
|----0---1---2-------------------|----2---------------2-----------|
|4-------------------------------|------------------------0-------|
|--------------------------------|--------------------------------|

 dad...  |       |       |        |       |       Feliz navi-      
|--------------------------------|--------------------------------|
|--------------------------------|--------------------------------|
|0---0-----------0-----------4---|----0---------------------------|
|--------3---0-------------------|--------------------2-------2---|
|--------------------------------|--------------------------------|
[ Tab from: http://www.guitartabs.cc/tabs/c/celine_dion/feliz_navidad_btab.html ]
 dad...  |     prospero  |        aņo   y felizidad...    |        
|--------------------------------|--------------------------------|
|----------------------------0---|--------4---3---2---------------|
|----0---1---2-------------------|--------------------2-----------|
|4-------------------------------|------------------------0-------|
|--------------------------------|----3---------------------------|

 |       |       |       |        |       |   Feliz navi- |        
|--------------------------------|--------------------------------|
|----------------------------0---|----2-------3---4---4-----------|
|0---------------0---4-----------|--------------------------------|
|--------3---0-------------------|------------------------2-------|
|--------------------------------|--------------------------------|

 dad...  |       |       |        |       |   Feliz navi- |        
|--------------------------------|--------------------------------|
|----------------------------0---|--------0---1---2---------------|
|----0---1---2-------------------|----2---------------2-----------|
|4-------------------------------|------------------------0-------|
|--------------------------------|--------------------------------|

 dad...  |       |       |        |       |   Feliz navi- |        
|--------------------------------|--------------------------------|
|--------------------------------|--------2---3---4---------------|
|0---0-----------0---2---3---4---|----4---------------4-----------|
|--------3---0-------------------|------------------------2-------|
|--------------------------------|--------------------------------|

 dad...  |   prospero    |        aņo     y felizidad...  |        
|--------------------------------|--------------------------------|
|----------------------------0---|----0-------4---2---------------|
|----0---1---2-------------------|--------------------1-----------|
|4-------------------------------|------------------------0-------|
|--------------------------------|--------------------------------|

 |       |       |       |        I wanna wish you|a....  |        
|--------------------------------|--------------------------------|
|--------------------------------|--------------------------------|
|0---------------------------0---|--------------------------------|
|--------3---0---3---3---4-------|--------------------------------|
|--------------------------------|--------------------------------|

Transcribe! 6.0 transcription http://www.seventhstring.demon.co.uk/
Created with TablEdit http://www.tabledit.com/
http://www.geocities.com/jani_bjorklund/janis.html?1058405404377
Comments