Cbd - Lets Grove Chords & Tabs

 

Lets Grove Chords & Tabs

Cbd Chords & Tabs

Version: 1 Type: Bass Tab 0 ratings
1 star 2 stars 3 stars 4 stars 5 stars
comments

Lets Grove Bass Tab

CBD - "Let's Grove" - Bass Tab

Common Time(4/4)
Standard Tuning(EADG)

MAIN RIFF:
|------------|--------------|
|*-----------|-------------*|
|*-----------|-----2-r-0-2-*|
|--0-r-3-5-3-|-2-r----------|
   1 2 & 3 4   1 2 & 3 & 4
[ Tab from: http://www.guitartabs.cc/tabs/c/cbd/lets_grove_btab.html ]
INTERLUDE:
|-------------|-------------|-------------|-------------|-----------|
|-------------|-------2---r-|-------------|-------------|-------.-.-|
|-0-r-0-0-r-0-|-2---r-------|-0-r-0-0-r-0-|-2---r-------|-3-r-3-3-3-|
|-------------|-------------|-------------|-------0---r-|-----------|
  1 2 & 3 4 &   1 2 & 3 4 &   1 2 & 3 4 &   1 2 & 3 4 &   1 2 & 3 4

|-------------|---------|---------|
|-------------|---------|-.-.-----|
|-5---r-------|-r-e-s-t-|-2-2-r-r-|
|-------3---r-|---------|---------| 
  1 2 & 3 4 &   1 2 3 4   1 2 3 4


By: Johari Taylor
E-mail: johari@goconnect.net or viking@powerup.com.au
More Bass Tabs: http://www.powerup.com.au/~viking/basstab.htm

Comments