Cazals - Poor Innocent Boys Chords & Tabs

 

Poor Innocent Boys Chords & Tabs

Cazals Chords & Tabs

Version: 1 Type: Bass Tab

Poor Innocent Boys Bass Tab

Cazals- poor innocent boys bass
Standard tuning
* means play lots, listen to the song and youll hear
/ slide down
\ slide up
come in with E-0-
Main riff					  2nd time end with
G|------------------2--2-/--5-5--|-------------|---------------------------|
D|-------2--2-----2-------------3|-------------|---5-5--7-7----------------|
A|-----2------0-0----------------|--3----------|-3-------------------------|
E|-0-0---------------------------|---3-3-5-5---|---------------------------|
Repeat however many times for intro/ verse
chorus
G|--------------------------------------------------------------------------|
D|--------------------12-10-9-----------------------------------------------|
A|-3*-/-10*--3*-/-10*---------3*-0*-7*-5-10*-3*-0*--------------------------|
E|--------------------------------------------------------------------------|
 End chorus
G|--------------------------------------------------------------------------|
D|--------------------------------------------------------------------------|
A|--------------------------------------------------------------------------|
E|--7-7-7-5-7-7-7-5-7-7-5-5-3-3-2-2-----------------------------------------|

Back to verse

Chorus 2
G|--------------------------------------------------------------------------|
D|--------------------------------------------------------------------------|
A|-3*-0*-pause-3*-0*-7*-10*-3*-0*-7*-5-10*\-3*-0*-5-7*-5-10-----------------|
E|--------------------------------------------------------------------------|
end
G|--------------------------------------------------------------------------|
D|--------------------------------------------------------------------------|
A|--------------------------------------------------------------------------|
E|-7-7-7-5-7-7-7-5-7-7-5-5-3-3-2-2-0----------------------------------------|

[ Tab from: http://www.guitartabs.cc/tabs/c/cazals/poor_innocent_boys_btab.html ]