Cave In - Inspire Chords & Tabs

 

Inspire Chords & Tabs

Cave In Chords & Tabs

Version: 2 Type: Tab 0 ratings
1 star 2 stars 3 stars 4 stars 5 stars
comments

Inspire Tab

Cave In - Inspire - Antenna (2003)

The main riff is clear because they are single notes, not power  chords like other tabs submitted.

Intro x 4
eb|-----------------------------0------------|
Bb|-------------------------------0----------|
Gb|--44-44-44-44-44-44-44-44--------3--------|
Db|--44-44-44-44-44-44-44-44----------4------|
Ab|------------------------------------------|
Eb|------------------------------------------|
Alternate strokes

eb|---0--------0--------0----------|
Bb|-----0--------0--------0--------|
Gb|-------2--------3--------2------|
Db|---------3--------4--------3----|
Ab|--------------------------------|
Eb|--------------------------------|


Main riff - Rock! x4
eb|-------------------------------|
Bb|-------------------------------|
Gb|----------------------------2^-|
Db|---------------------7^-OR--2^-|
Ab|---------------------7^--------|
Eb|--2--2--5-2--0-1--1------------|
[ Tab from: http://www.guitartabs.cc/tabs/c/cave_in/inspire_tab_ver_2.html ]
x2
eb|---------0----------------------------------|
Bb|--0--------0--------------------------------|
Gb|--3-------------22-22-22-22-22-22-22-22-----|
Db|--4-------------22-22-22-22-22-22-22-22-----|
Ab|----------------00-00-00-00-00-00-00-00-----|
Eb|--------------------------------------------|

Chorus
eb|----------------------------------------|-----------------|-------------------|
Bb|----------------------------------------|-----------------|-------------------|
Gb|--4-4-4-4---2-2-2-2---4-4-4-4---2-2-2-2-|-444-444-444--2--|-4-4-4-4---5-5-5-5-|
Db|--4-4-4-4---2-2-2-2---4-4-4-4---2-2-2-2-|-444-444-444--2--|-4-4-4-4---5-5-5-5-|
Ab|--2-2-2-2---0-0-0-0---2-2-2-2---0-0-0-0-|-222-222-222--0--|-2-2-2-2---3-3-3-3-|
Eb|----------------------------------------|-222-222-222-----|-------------------|
Alternatley strummed (double those written)  Stacatto

The rest is repeating these guitar parts.

Tabbed by sitdownstandup.
Comments