Cave In - Inspire Chords & Tabs

 

Inspire Chords & Tabs

Cave In Chords & Tabs

Version: 1 Type: Tab 0 ratings
1 star 2 stars 3 stars 4 stars 5 stars
comments

Inspire Tab

Inspire by Cave-in.
Tabbed by Danny Schiz
Email is kazuyajinjun@aol.com

I'm very sure this is correct; this is what they seem to be playing in the music video. 

Beginning
E|-------------1-----------1---2---1---------------------------
B|--------------1-----------1---1---1--------------------------
G|----------------1----------1---1---1-------------------------
D|------------------Repeat-------------------------------------
A|555555555555-------------------------------------------------
E|222222222222-------------------------------------------------
[ Tab from: http://www.guitartabs.cc/tabs/c/cave_in/inspire_tab.html ]
Main Riff
E|-------------------------------------------------------------
B|-------------------------------------------------------------
G|-------------------------------------------------------------
D|-------------------------------------------------------------
A|--5----------------------------------------------------------
E|22-22110-----------------------------------------------------


Verse: Play this when the guitars kick in.
E|-------------------------------------------------------------
B|-------------------------------------------------------------
G|-------------------------------------------------------------
D|-------------------------------------------------------------
A|555555555555---5---------------------------------------------
E|222222222222-22-22110----------------------------------------

Chorus
E|------------------------------------5-------------------------
B|------------------------------------5-------------------------
G|------------------------------------7x18----------------------
D|------------------------------------6-------------------------
A|55555555-33333333-22222222-33333333-7---33333333-22222222-3333
E|22222222-11111111-00000000-11111111-5---11111111-00000000-1111

Repeat verse, chorus, beginning, and verse, then chorus, then main riff.
Comments