Cave In - Dark Driving Chords & Tabs

 

Dark Driving Chords & Tabs

Cave In Chords & Tabs

Version: 1 Type: Tab 0 ratings
1 star 2 stars 3 stars 4 stars 5 stars
comments

Dark Driving Tab

Cave In - Dark Driving (Tides of Tomorrow E.P.)
tabbed by glasshouse_tarot

key - 

p - pull off
fb - full bend
~ - let ring

intro riff
e------------------------------
B------------------------------
G------------------------------
D---------4---------2p0--2-----
A--0--2------------------------
E------------0~----------------

Bass Bit at end of verse lines (let all notes ring)
e-------------------------------------------------
B-------------------------------------------------
G-------------------------------------------------
D-------------------------------------------------
A------5----------2---------5--------------2------
E--5------3---2------0---5-----3---3---2----------

[ Tab from: http://www.guitartabs.cc/tabs/c/cave_in/dark_driving_tab.html ]
Heavy Riff
e----------------------------------------------------
B----------------------------------------------------
G----------------------------------------------------
D------4(fb)--2p0--2---------4------4(fb)--2p0--2----
A--2------------------0--2------2--------------------
E--0----------------------------0------------------etc.

second heavy bit (let all notes ring again)
e---------------------------------------------------
B---------------------------------------------------
G------7------------4-----------7---------------4---
D--7---7---5----4---4---2---7---7---5---5---4---4---
A--7---5---5----4---2---2---7---5---5---5---4---2---
E--5-------3----2-------0---5-------3---3---2-------
next fill goes here------>*

fill for lead over 2nd heavy bit
e----------------------------------
B----------------------------------
G--2(fb)--2p0----------------------
D---------------2p0----------------
A----------------------------------
E----------------------------------

the end. have fun.


Comments