Cave In - Anchor Chords & Tabs

 

Anchor Chords & Tabs

Cave In Chords & Tabs

Version: 1 Type: Tab 0 ratings
1 star 2 stars 3 stars 4 stars 5 stars
comments

Anchor Tab

   
Cave In
http://www.cavein.net
USA
Song "Anchor" is off the album "Antenna"

----------------------
 Anchor - Cave In
----------------------
This tab is the author's work and represents their interpretation
of the song.

Written by: S. Brodsky (and Cave In)

Tabbed by: Rory Downham
Email: Voodoo_Squirrel@hotmail.com

Tuning: Drop-d (d A d G B e)   



"Whatever makes you tired...."
e|--------------------------------------------------------------
B|--------------------------------------------------------------
G|---------------------------------------------------6-6--4-4---
D|--3-3-3-3-3-3-3-3-2-2-2-2-2-2-2-2-1-1-1-1-1-1-1-1--6-6--4-4---
A|--3-3-3-3-3-3-3-3-2-2-2-2-2-2-2-2-1-1-1-1-1-1-1-1--4-4--2-2---
D|--3-3-3-3-3-3-3-3-2-2-2-2-2-2-2-2-1-1-1-1-1-1-1-1-------------

e|-------------------------------------------------------------
B|-------------------------------------------------------------
G|--3-3-3-3-3-3-3-3-2-2-2-2-2-2-2-2----------------------------
D|--3-3-3-3-3-3-3-3-2-2-2-2-2-2-2-2-6-6-6-6-6-6-6-6--4-4--2-2--
A|--1-1-1-1-1-1-1-1-0-0-0-0-0-0-0-0-6-6-6-6-6-6-6-6--4-4--2-2--
D|----------------------------------6-6-6-6-6-6-6-6--4-4--2-2--

Play all of above twice, on second time palm mute the last two chords (444 and 222)


"Are you safe to leave behind......"
e|----------------------
B|----------------------
G|--6----4----6----4----
D|--6----4----6----4----
A|--4----2----4----2----
D|----------------------

"you know better than I do....."
e|---------------------------------------------------------
B|---------------------------------------------------------
G|--3-3-3-3-3-3-3-3----------------------------------4-----
D|--3-3-3-3-3-3-3-3-1-1-1-1-1-1-1-1-4-4-4-4-4-4-4-4--4-----
A|--1-1-1-1-1-1-1-1-1-1-1-1-1-1-1-1-4-4-4-4-4-4-4-4--2-----
D|------------------1-1-1-1-1-1-1-1-4-4-4-4-4-4-4-4--------

>REPEAT EVERYTHING (from the start to here), then play......... 

"Are you safe to leave behind......"
e|----------------------
B|----------------------
G|--6----4----6----4----
D|--6----4----6----4----
A|--4----2----4----2----
D|----------------------

"you know better than I do....."
e|---------------------------------------------------------
B|---------------------------------------------------------
G|--3-3-3-3-3-3-3-3----------------------------------4-----
D|--3-3-3-3-3-3-3-3-1-1-1-1-1-1-1-1-4-4-4-4-4-4-4-4--4-----
A|--1-1-1-1-1-1-1-1-1-1-1-1-1-1-1-1-4-4-4-4-4-4-4-4--2-----
D|------------------1-1-1-1-1-1-1-1-4-4-4-4-4-4-4-4--------
[ Tab from: http://www.guitartabs.cc/tabs/c/cave_in/anchor_tab.html ]
>Middle 8 (no distortion)
(Guitar takes a more subtle role, there's some picking, and this...)
e|------------------------------------------------------------
B|------------------------------------------------------------
G|---------------------------------------------------66666666-
D|--3-4-5-4--3-6-1-4--3-4-5-4--3-6-1-4--3-6-11111111-66666666-
A|--3-4-5-4--3-6-1-4--3-4-5-4--3-6-1-4--3-6-11111111-44444444-
D|--3-4-5-4--3-6-1-4--3-4-5-4--3-6-1-4--3-6-11111111----------
                                            (last 2 chords - distortion)
>Then.......

"Whatever makes you tired...."
e|--------------------------------------------------------------
B|--------------------------------------------------------------
G|---------------------------------------------------6-6--4-4---
D|--3-3-3-3-3-3-3-3-2-2-2-2-2-2-2-2-1-1-1-1-1-1-1-1--6-6--4-4---
A|--3-3-3-3-3-3-3-3-2-2-2-2-2-2-2-2-1-1-1-1-1-1-1-1--4-4--2-2---
D|--3-3-3-3-3-3-3-3-2-2-2-2-2-2-2-2-1-1-1-1-1-1-1-1-------------

e|------------------------------------------------------------
B|------------------------------------------------------------
G|--3-3-3-3-3-3-3-3-2-2-2-2-2-2-2-2---------------------------
D|--3-3-3-3-3-3-3-3-2-2-2-2-2-2-2-2-6-6-6-6-6-6-6-6--4-4--2-2-
A|--1-1-1-1-1-1-1-1-0-0-0-0-0-0-0-0-6-6-6-6-6-6-6-6--4-4--2-2-
D|----------------------------------6-6-6-6-6-6-6-6--4-4--2-2-
                                palm mute the last two chords (444 and 222)

"Are you safe to leave behind......"
e|----------------------
B|----------------------
G|--6----4----6----4----
D|--6----4----6----4----
A|--4----2----4----2----
D|----------------------

"you know better than I do....."
e|--------------------------------------------------------
B|--------------------------------------------------------
G|--3-3-3-3-3-3-3-3----------------------------------4----
D|--3-3-3-3-3-3-3-3-1-1-1-1-1-1-1-1-4-4-4-4-4-4-4-4--4----
A|--1-1-1-1-1-1-1-1-1-1-1-1-1-1-1-1-4-4-4-4-4-4-4-4--2----
D|------------------1-1-1-1-1-1-1-1-4-4-4-4-4-4-4-4-------

"Are you safe to leave behind......"
e|----------------------
B|----------------------
G|--6----4----6----4----
D|--6----4----6----4----
A|--4----2----4----2----
D|----------------------

"you know better than I do....."
e|-----------------------------------------------------
B|-----------------------------------------------------
G|--3-3-3-3-3-3-3-3----------------------------------4-
D|--3-3-3-3-3-3-3-3-1-1-1-1-1-1-1-1-4-4-4-4-4-4-4-4--4-
A|--1-1-1-1-1-1-1-1-1-1-1-1-1-1-1-1-4-4-4-4-4-4-4-4--2-
D|------------------1-1-1-1-1-1-1-1-4-4-4-4-4-4-4-4----

>Repeat the "you know better than I do" bit to the end.
Comments