Cauterize - Something Beautiful Chords & Tabs

 

Something Beautiful Chords & Tabs

Cauterize Chords & Tabs

Version: 1 Type: Tab 0 ratings
1 star 2 stars 3 stars 4 stars 5 stars
comments

Something Beautiful Tab

   
-----------------------------------------------------------------------------
			     Something Beautiful - Cauterize
-----------------------------------------------------------------------------
Tabbed by: Kiefermatot
Email:bamcky2k_69@hotmail.com

Tuning: Standard -(EADGBE)


       Intro
e]------------------------------------|
b]------------------------------------|
g}------------------------------------| x4
d]-10xx---11-11-11-11-11-11-11-11-----|
a]-8-xx8xx9--9--9--9--9--9--9--9------|
e]-----6xx----------------------------|
        
e]---------------------|
b]---------------------|
g]---------------------|
d]---------------------|
a]333333333333333------|
e]111111111111111------|
PM ......



The Verse Is All Bass.





 Pre Chorus

e]----------------------------------------------------------------------|
b]----------------------------------------------------------------------|
g]----------------------------------------------------------------------|
d]-10-10-10-10-10-10-10-10-10-10-10-10-10-10-10-10-66666666------8888---|x2
a]-8--8--8--8--8--8--8--8--8--8--8--8--8--8--8--8--44444444-6666-6666---|
e]----------------------------------------------------------4444--------|

            Chorus
[ Tab from: http://www.guitartabs.cc/tabs/c/cauterize/something_beautiful_tab.html ]
e]-----------------------------------------------------------|
b]-----------------------------------------------------------|
g]-5---------------------------------------------------------| x2
d]-6------6----------------6-666666-6-666666-----------------|
a]-6-----44---333333333333-4-444444-4-444444-----------------|
e]44----------111111111111-----------------------------------|
               ..... .....  

              Interlude

e]--------------------------------------------------------|
b]--------------------------------------------------------|
g]---5-5----------5-5---------5-5------------5-5----------|
d]----6---x2-----6-6--x2-----6-6--x2--------6-6--x2-------|
a]-6------------4--------------------------4--------------|
e]4------------------------6------------------------------|

e]---------------------------------------------|
b]---------------------------------------------|
g]---------------------------------------------|
d]--------6666666--x4-----------6--------------|
a]6666666-4444444------66666666-4--------------|
e]4444444--------------44444444----------------|


            
Order
 
Intro
Pre-chorus
Chorus
Pre-chorus          
Chorus
Interlude
Chorus

| PM palm mute note
| /  slide up
| \  slide down
| h  hammer-on
| p  pull-off
| ~  vibrato
| +  harmonic
| x  Mute note
=============================================================================
Comments