Cauterize - Killing Me Chords & Tabs

 

Killing Me Chords & Tabs

Cauterize Chords & Tabs

Version: 1 Type: Tab 0 ratings
1 star 2 stars 3 stars 4 stars 5 stars
comments

Killing Me Tab

Artist-Cauterize
Song-Killing Me
Album-So Far From Real
Tuning- Standard

e---------------------------------------------|
b---------------------------------------------|
g----5-5-5-----------8-8-8--------------------|
d----5-5-5---6-6-6---8-8-8---8-8--6-6---8-8---|
a----3-3-3---6-6-6---6-6-6---8-8--6-6---8-8---|
e------------4-4-4-----------6-6--4-4---6-6---|
[ Tab from: http://www.guitartabs.cc/tabs/c/cauterize/killing_me_tab.html ]
this next riff is played under the rythem above and through most of the verse

e---------------------------------------------|
b---------------------------------------------|repeat x4 (listen to the song
g----------8--8--8--7--7--7-------------------|for the rytem)
d----------------------------8--8--8----------|
a---------------------------------------------|
e---------------------------------------------|
Comments