Cauterize - If You Go Chords & Tabs

 

If You Go Chords & Tabs

Cauterize Chords & Tabs

Version: 1 Type: Tab 0 ratings
1 star 2 stars 3 stars 4 stars 5 stars
comments

If You Go Tab

   
----------------------------------------------------------------------------
			     IF YOU GO - Cauterize
----------------------------------------------------------------------------
Tabbed by: Jesse Benedick
Email: JBMetal311@Yahoo.com

Tuning: DADGBe
[ Tab from: http://www.guitartabs.cc/tabs/c/cauterize/if_you_go_tab.html ]
e|-----|-----------------|-----------------|-----------------------|
B|-----|-----------------|----8---6p5------|-----------------------|
G|-----|--5----7---------|--5---5-----7p5--|-----------------------|
D|--3--|--5----7----3----|-----------------|--5----3-----5----3----|
A|--3--|--3----5----3----|-----------------|--5----3-----5----3----|
D|--3--|------------3----|-----------------|--5----3-----5----3----|
 Guitar 1                  Guitar 2         Guitar 1(pm..........)
e|-------------------------------|-----------------------|
B|-------------------------------|-----------------------|
G|--5----------------------------|--5----7----9----10----|
D|--x----------------------------|--x----x----x----x-----|
A|--3----------------------------|--3----5----7----8-----|
D|-------------------------------|-----------------------|
 Guitar 1                         Guitar 2 Repeat 4x
e|--------------------------------------------------------|
B|--------------------------------------------------------|
G|---------------5-------------------------5--------------|
D|--2--3--5------5--3--5------2--3--5------5--3--5--------|
A|--2--3--5------3--3--5------2--3--5------3--3--5--------|
D|--2--3--5---------3--5------2--3--5---------3--5--------|
 Guitar 1 Pre-chorus
e|-------------------|
B|-------------------|
G|--5-4---5-4--------|
D|------5-----3-5~---|
A|-------------------|
D|-------------------|
 Guitar 2 Pre-chorus (Repeat 4x)
e|----------------------|-----------------------------|
B|----------------------|--5-8-5-6p5-55-5-6-6p5-55----|
G|--5-------------------|--5-5-5---5-55-5-5---5-55----|
D|--5----5----7----3----|-----------------------------|
A|--3----5----7----3----|-----------------------------|
D|-------5----7----3----|-----------------------------|
 Guitar 1 Chorus Chords  Guitar 2 Chorus Notes (Repeat many times)
e|-------------------0--|----------------------------------------|
B|------------------1---|----------------------------------------|
G|--------5-----2--2----|--5---------7-----------5---------------|
D|--0-2-3---2-3---3-----|--5----5----7----3------5----5----3-----|
A|----------------------|--3----5----5----3------3----5----3-----|
D|----------------------|-------5---------3-----------5----3-----|
 Guitar 1                Guitar 1 Breakdown Chords
e|-----------------|
B|-----------------|
G|-----5p4-----5p4-|
D|--55-5----55-5---|
A|-----------------|
D|-----------------|
 Guitar 2 Breakdown (Repeat many times)

Well, that's everything. Just listen to the song for the order of everything. Rock on!

| /  slide up
| \  slide down
| h  hammer-on
| p  pull-off
| ~  vibrato
| +  harmonic
| x  Mute note
============================================================================
Comments