Cauterize - Choke Chords & Tabs

 

Choke Chords & Tabs

Cauterize Chords & Tabs

Version: 4 Type: Tab 0 ratings
1 star 2 stars 3 stars 4 stars 5 stars
comments

Choke Tab

   
Tuning: Standard (E A D G B E)

Also Check out T.O.E.! They were Cauterize before the name Cauterize.

INTRO (Gtr1)

E|--------------------------------------------------||
B|--------------------------------------------------||
G|----------10-10-9-10-9----------10-10-9-10-9------|| X2
D|---10-10---------------10-10-10---------------10--||
A|--------------------------------------------------||
E|--------------------------------------------------||
Pm   -  -   -   -  - - -  -  - -    - - -  -  -   -

PRE VERSE(Gtr1)

E|----------------------------------------------------||
B|----------------------------------------------------||
G|--------10-10-9-10-9------------10-10-9-10-9--------||
D|--10-10---------------10-10-10----------------10----|| Palm Muted
A|----------------------------------------------------||
E|----------------------------------------------------||
 |                    Gtr2                            || X2
E|----------------------------------------------------||----------||
B|----------------------------------------------------||----------||
G|-----------------------------7--7-7---7-10-10-10-10-||----------||
D|-8--8-8----8--10-10-10----10-7--7-7---7-10-10-10-10-||----------||
A|-8--8-8----8--10-10-10----10-5--5-5---5-8--8--8--8--||--7--8h7--||
E|-6--6-6----6--8--8---8----8-------------------------||---------8||


E|----------------------------------------------------------------||
B|----------------------------------------------------------------||
G|-10--10-10-10-9h10----10------10--10-10-10-9h10----10-----------||
D|-------------------10---------------------------10--------------||
A|----------------------------------------------------------------||
E|----------------------------------------------------------------||
 |                      Gtr2                                      ||
E|----------------------------------------------------------------||
B|----------------------------------------------------------------||
G|----------------------------------------------------------------||
D|-8-8-8-8-8-8-8-8-------------10-10-10-10-10-10-10-10------------||
A|-8-8-8-8-8-8-8-8-------------10-10-10-10-10-10-10-10------------||
E|-6-6-6-6-6-6-6-6--------------8--8--8--8--8--8--8--8------------||

E|----------------------------------------------------------------||
B|----------------------------------------------------------------||
G|-10--10-10-10-9h10----10------10--10-10-10-9h10----10-----------||
D|-------------------10---------------------------10--------------||
A|----------------------------------------------------------------||
E|----------------------------------------------------------------||
 |                      Gtr2                                      ||
E|----------------------------------------------------------------||
B|----------------------------------------------------------------||
G|-7-7-7-7-7-7-7-7-7-10---------10--------------------------------||
D|-7-7-7-7-7-7-7-7-7-10---------10--------------------------------||
A|-5-5-5-5-5-5-5-5-5--8----------8----7-----8h7-------------------||
E|----------------------------------------------------8-----------||

E|----------------------------------------------------------------||
B|----------------------------------------------------------------||
G|-10--10-10-10-9h10----10------10--10-10-10-9h10----10-----------||
D|-------------------10---------------------------10--------------||
A|----------------------------------------------------------------||
E|----------------------------------------------------------------||
 |                      Gtr2                                      ||
E|----------------------------------------------------------------||
B|----------------------------------------------------------------||
G|----------------------------------------------------------------||
D|-8-8-8-8-8-8-8-8-------------10-10-10-10-10-10-10-10------------||
A|-8-8-8-8-8-8-8-8-------------10-10-10-10-10-10-10-10------------||
E|-6-6-6-6-6-6-6-6--------------8--8--8--8--8--8--8--8------------||

E|----------------------------------------------------------------||
B|----------------------------------------------------------------||
G|-10--10--10--10--10--10--10--10--10--10--10--10--10-------------||
D|------------------------------------------------------10--------||
A|----------------------------------------------------------------||
E|----------------------------------------------------------------||
 |                      Gtr2                                      ||
E|----------------------------------------------------------------||
B|----------------------------------------------------------------||
G|-10--10--10--10--10--10--10--10--10--10--10--10--10-------------||
D|-10--10--10--10--10--10--10--10--10--10--10--10--10--10----12---||
A|--8---8---8---8---8---8---8---8---8---8---8---8---8--10----12---||
E|------------------------------------------------------8----10---||

VERSE (BASS)

G|-------------------------------12------------------------------||
D|----------14----15----14------(17)----15-----14-----15---------||
A|------12-----12----12------12------12-----12-----12------------|| X3
E|--10-----------------------------------------------------------||

G|-------9-----10-----9---------9------10------9-----------------||
D|----10----10----10--------10-----10------10--------------------||
A|---------------------------------------------------------------||
E|--8------------------------------------------------------------||

PRE CHORUS
(GTR 1 and 2)
E|----------------------------------------------------------------||
B|----------------------------------------------------------------||
G|-7-7-7-7-7-7-7-7-7-7-7-7----------------------------------------||
D|-7-7-7-7-7-7-7-7-7-7-7-7--10---8--8-8-8-8-8-8-8-8-8-8-8-8-8-8---|| X2
A|-5-5-5-5-5-5-5-5-5-5-5-5--10---8--8-8-8-8-8-8-8-8-8-8-8-8-8-8---||
E|---------------------------8---6--6-6-6-6-6-6-6-6-6-6-6-6-6-6---||
Pm - - - - - - - - - - - -          - - - - - - - - - - - - - -

CHORUS
 
E|----------------------------------------------------------------||
B|----------------------------------------------------------------||
G|---------------------7-7-7--10--------10-------------10---------||
D|--8-8-8---10-10-10---7-7-7--10--------10-------------10---------||
A|--8-8-8---10-10-10---5-5-5---8---------8--------------8---------||
E|--6-6-6---8---8--8----------------------------------------------||
 |                           Gtr2                                 ||  x2
E|----------------------------------------------------------------||
B|----------------------------------------------------------------||
G|---------------------7-7-7----10-----10-----10---9--10p9--------||
D|--8-8-8--10-10-10----7-7-7----------------------------------10--||
A|--8-8-8--10-10-10----5-5-5--------------------------------------||
E|--6-6-6--8---8--8-----------------------------------------------||

(gtr 1 and 2)
E|----------------------------------------------------------------||
B|----------------------------------------------------------------||
G|-------------------------------------------10-10-10-10-10-10-10-||
D|--8-8-8-8-8-8-8-8-10-10-10-10-10-10-10-10--10-10-10-10-10-10-10-||
A|--8-8-8-8-8-8-8-8-10-10-10-10-10-10-10-10---8--8--8--8--8--8--8-||
E|--6-6-6-6-6-6-6-6--8--8--8--8--8--8--8--8-----------------------||
                                                                     x2
E|----------------------------------------------------------------||
B|----------------------------------------------------------------||
G|-10-10-10-10-10-10-10-10-10-10-10-10-10-10-10-10-10-------------||
D|-10-10-10-10-10-10-10-10-10-10-10-10-10-10-10-10-10-------------||
A|--8--8--8--8--8--8--8--8--8--8--8--8--8--8--8--8--8-------------||
E|----------------------------------------------------------------||

PREVERSE
[ Tab from: http://www.guitartabs.cc/tabs/c/cauterize/choke_tab_ver_4.html ]
E|----------------------------------------------------------------||
B|----------------------------------------------------------------||
G|-----------------------------------------10------9---7----------||
D|-8-8-8-8-8-8-8-8-10-10-10-10-10-10-10-10-10------9---7-----10---||
A|-8-8-8-8-8-8-8-8-10-10-10-10-10-10-10-10--8------7---5-----10---||
E|-6-6-6-6-6-6-6-6--8--8--8--8--8--8--8--8--------------------8---||

BACK TO PREVERSE/VERSE/PRECHORUS/CHORUS/PREVERSE

INTERLUDE:
  (GTR 1 and 2)
E|----------------------------------------------------------------||
B|----------------------------------------------------------------||
G|--7-------------------------------------------------------------||
D|--7----------------------8--------------------------10----------||X2
A|--5----------------------8--------------------------10----------||
E|-------------------------6---------------------------8----------||


E|----------------------------------------------------------------||
B|----------------------------------------------------------------||
G|--7-------------------------------------------------------------||
D|--7----------------------8--------------------------10----------||X2
A|--5----------------------8--------------------------10----------||
E|-------------------------6---------------------------8----------||
 |                        GTR 2                                   ||
E|----------------------------------------------------------------||
B|----------------------------------------------------------------||
G|--7-------------------------------------------------------------||
D|--7-------------------------------------------------------------||X2
A|--5-----------------------8------------------10---8---7---------||
E|----------------------------------------------------------------||

BASS SOLO

E|----------------------------------------------------------------||
B|----------------------------------------------------------------||
G|--7-7-------------------7-7-------------------------------------||
D|--7-7-------------------7-7-------------------8-8---------------||
A|--5-5-------------------5-5-------------------8-8---------------||
E|----------------------------------------------6-6---------------||
 |                                 BASS                           ||
G|--7-7--9-9--10-10--9-9--7-7--9-9--10-10--9-9--7-7--10-10--9-9---||
D|----------------------------------------------------------------||
A|----------------------------------------------------------------||
E|----------------------------------------------------------------||
                                                                     x2
E|----------------------------------------------------------------||
B|----------------------------------------------------------------||
G|----------------------------------------------------------------||
D|----------------------------------------------------------------||
A|---------10--10-------------------------------------------------||
E|----------8---8-------------------------------------------------||
 |                                 BASS                           ||
G|-----------------12-12--10-10--9-9------------------------------||
D|--10-10---10-10-------------------------------------------------||
A|----------------------------------------------------------------||
E|----------------------------------------------------------------||

PRE SOLO
(GTR 1 and 2)
E|----------------------------------------------------------------||
B|----------------------------------------------------------------||
G|-7-7-7-7-7-7-7-7-7-7-7-7----------------------------------------||
D|-7-7-7-7-7-7-7-7-7-7-7-7---8-8-8-8-8-8-8-8-8-8-8-8--10-10-10-10-||
A|-5-5-5-5-5-5-5-5-5-5-5-5---8-8-8-8-8-8-8-8-8-8-8-8--10-10-10-10-||
E|---------------------------6-6-6-6-6-6-6-6-6-6-6-6---8--8--8--8-||
                                                                     x2
E|----------------------------------------------------------------||
B|----------------------------------------------------------------||
G|----------------------------------------------------------------||
D|--10-10-10-10-10-10-10-10---------------------------------------||
A|--10-10-10-10-10-10-10-10---------------------------------------||
E|--8--8--8--8--8--8--8--8----------------------------------------||

SOLO
**use pick harmonics.. sandwhich the pick between thumb and pointer 
and use fleshy part of thumb to also pluck to get a squeeling sound**
(GTR1)
E|----------------------------------------------------------------||
B|----------------------------------------------------------------||
G|----------------------------------------------------------------||
D|--5---7---5---8---7---5h7---------5---7---5---5---5h7-----------||
A|----------------------------8---------------------------5-------||
E|----------------------------------------------------------------||
 |                             GTR 2                              || x2
E|----------------------------------------------------------------||
B|----------------------------------------------------------------||
G|-7-7-7-7-7-7-7-7-7-7-7-7----------------------------------------||
D|-7-7-7-7-7-7-7-7-7-7-7-7---8-8-8-8-8-8-8-8-8-8-8-8--10-10-10-10-||
A|-5-5-5-5-5-5-5-5-5-5-5-5---8-8-8-8-8-8-8-8-8-8-8-8--10-10-10-10-||
E|---------------------------6-6-6-6-6-6-6-6-6-6-6-6---8--8--8--8-||

OUTRO1
(GTR1 and 2)                                                      
E|----------------------------------------------------------------||
B|----------------------------------------------------------------||
G|-10-10-10-10-10-10-10-10-10-10-10-10-10-10-10-10----------------||
D|-10-10-10-10-10-10-10-10-10-10-10-10-10-10-10-10----------------||
A|--8--8--8--8--8--8--8--8--8--8--8--8--8--8--8--8----------------||
E|----------------------------------------------------------------||

E|----------------------------------------------------------------||
B|----------------------------------------------------------------||
G|----------------------------------------------------------------||
D|-10-10-10-10-10-10-10-10-10-10-10-10-10-10-10-10----------------||
A|-10-10-10-10-10-10-10-10-10-10-10-10-10-10-10-10----------------||
E|--8--8--8--8--8--8--8--8--8--8--8--8--8--8--8--8----------------||

E|----------------------------------------------------------------||
B|----------------------------------------------------------------||
G|------------------------7--7-7-7-7------------------------------||
D|--8---8-8-8-8-8-8-8-8---7--7-7-7-7--10-10-10-10-----------------|| x2
A|--8---8-8-8-8-8-8-8-8---5--5-5-5-5--10-10-10-10-----------------||
E|--6---6-6-6-6-6-6-6-6----------------8--8--8--8-----------------||

E|----------------------------------------------------------------||
B|----------------------------------------------------------------||
G|-10-10-10-10-10-10-10-10-10-10-10-10-10-10-10-10----------------||
D|-10-10-10-10-10-10-10-10-10-10-10-10-10-10-10-10----------------||
A|--8--8--8--8--8--8--8--8--8--8--8--8--8--8--8--8----------------||
E|----------------------------------------------------------------||

E|----------------------------------------------------------------||
B|----------------------------------------------------------------||
G|----------------------------------------------------------------||
D|-10-10-10-10-10-10-10-10-10-10-10-10-10-10-10-10----------------||
A|-10-10-10-10-10-10-10-10-10-10-10-10-10-10-10-10----------------||
E|--8--8--8--8--8--8--8--8--8--8--8--8--8--8--8--8----------------||

E|----------------------------------------------------------------||
B|----------------------------------------------------------------||
G|------------------------7--7-7-7-7------------------------------||
D|--8---8-8-8-8-8-8-8-8---7--7-7-7-7--10-10-10-10-----------------|| x2
A|--8---8-8-8-8-8-8-8-8---5--5-5-5-5--10-10-10-10-----------------||
E|--6---6-6-6-6-6-6-6-6----------------8--8--8--8-----------------||

OUTRO3
(GTR 1 and 2)
E|----------------------------------------------------------------||
B|----------------------------------------------------------------||
G|-10-10-10-10-10-------------------------------------------------||
D|-10-10-10-10-10-----10-10-10-10-10------8-8-8-8-8---8-8-8-8-8---|| x2
A|-8--8--8--8--8------10-10-10-10-10------8-8-8-8-8---8-8-8-8-8---||
E|---------------------8--8--8--8--8------6-6-6-6-6---6-6-6-6-6---||

And thats it! Gotta love that song...sounds may not sound exactly
correct due to processors etc that the band uses, but try fiddling
around with pedals and such...happy playing!!
Comments