Cauterize - Choke Chords & Tabs

 

Choke Chords & Tabs

Cauterize Chords & Tabs

Version: 2 Type: Tab 0 ratings
1 star 2 stars 3 stars 4 stars 5 stars
comments

Choke Tab

   
Song: Choke
From: Cauterize
Album: So far from real

tabbed by: Pedro Ayala
e-mail: ped_ro@hotmail.com

    . = pm
    x = mute


first guitar

e]----------------------------------------------------------------------------------
b]---6-5-6-5--x 12------6-6-5p6p5-X 6----55555555555555-----------------------------
g]-5-5-5-------------------------------------------------4-6------------------------
d]----------------------------------------------------------------------------------
a]----------------------------------------------------------------------------------
e]----------------------------------------------------------------------------------

second guitar enters in 00:05

e]----------------------------------------------------------------------------------
b]----------------------------------------------------------------------------------
g]----------------------------------------------------------------------------------
d]-3333--5555--7777--10-10-10-10----10-10-10-10-10-10-10-10-10-10-10-10-10-10-------
a]-1111--3333--5555--8--8--8--8-X4--8--8--8--8--8--8--8--8--8--8--8--8--8--8-10-12--
e]---------------------------------------------------------------------------8--10--

Verse

e]-----------------------------------------------------
b]-----------------------------------------------------
g]-----------------------------------------------------
d]-----------------------------------------------------
a]-12-12-12-12-12-12-12-12-12-12-12-12-12-12-12--12-10-
e]-10-10-10-10-10-10-10-10-10-10-10-10-10-10-10--10-8--
      .  .  .  .  .  .  .  .  .  .  .  .  .  .
e]----------------------------------------------------
b]----------------------------------------------------
g]----------------------------------------------------
d]---------------------------------------------------- X2
a]-10-10-10-10-10-10-10-10-10-10-10-10-10-10--10-12---
e]-8--8--8--8--8--8--8--8--8--8--8--8--8--8---8--8----
   .  .  .  .  .  .  .  .  .  .  .  .  .  .  

Pre Chorus
e]-----------------------------------------------------------------
b]-----------------------------------------------------------------
g]-----------------------------------------------------------------
d]-3333-5555-7777-10-10-10-10-3333-5555-7777-10-10-10-10-3333-5555-
a]-1111-3333-5555-8--8--8--8--1111-3333-5555-8--8--8--8--1111-3333-
e]-----------------------------------------------------------------
[ Tab from: http://www.guitartabs.cc/tabs/c/cauterize/choke_tab_ver_2.html ]
Chorus
e]--------------------------------------------------------------------------------
b]--------------------------------------------------------------------------------
g]--------------------------------------------------------------------------------
d]10-10-10-10-X8------------------------------------------------------------------X2
a]8--8--8--8-----8888888888888888-10-10-10-10-10-10-10-10-10-10-10-10-10-10-10-10-
e]---------------6666666666666666-8--8--8--8--8--8--8--8--8--8--8--8--8--8--8--8--

e]------------------------------------------
b]------------------------------------------
g]------------------------------------------
d]-10----7-5--------------------------------
a]-8--10-5-3--------------------------------
e]----8-------------------------------------

                         Interlude
e]--------      e]--------------------    e]-------------
b]--------      b]--------------------    b]-------------
g]--------      g]--------------------    g]-------------
d]-7--3-5-X2    d]-7--7-10-10-12-10-5-X2  d]-77-77-33-55-X2 
a]-5--1-3-      a]-5--5-8--8--10-8--3-    a]-55-55-11-33-
e]--------      e]--------------------    e]-------------
  
e]----------------------------------  e]-----------------------------------
b]----------------------------------  b]-----------------------------------
g]----------------------------------  g]-----------------------------------
d]-77xx77xx77xx77xx33xx33xx55-------  d]-777777777777777-33333333-55555555-X2
a]-55xx55xx55xx55xx11xx11xx33-------  a]-555555555555555-11111111-33333333-
e]----------------------------------  e]-----------------------------------

e]---------------------------------------------------------------------------------
b]---------------------------------------------------------------------------------
g]--------------------------------------------------------------------------------X2
d]-10-10-10-10---------------------------------------------------------------------
a]-8--8--8--8-X4---10-10-10-10-X4-88888888-12-12-12-12-10-10-10-10-8888888888888888
e]-----------------8--8--8--8-----66666666-10-10-10-10-8--8--8--8--6666666666666666

e]------------------- e]-------------------------------------------------------
b]------------------- b]-------------------------------------------------------
g]------------------- g]-------------------------------------------------------
d]-10---------------- d]10-10-10-10-10-----------------------------------------X2
a]-8--10-12-8-------- a]8--8--8--8--8--10-10-10-10-10-12-12-12-12-12-8-8-8-8-8-
e]----8--10-6-------- e]---------------8--8--8--8--8--10-10-10-10-10-6-6-6-6-6-
                        .  .  .  .     .  .  .  .     .  .  .  .     . . . .

I do not have the solo but im working on it
Comments