Cauterize - Choke Chords & Tabs

 

Choke Chords & Tabs

Cauterize Chords & Tabs

Version: 1 Type: Bass Tab 0 ratings
1 star 2 stars 3 stars 4 stars 5 stars
comments

Choke Bass Tab

   
#---------------------------------PLEASE NOTE----------------------------------#
#This file is the author's own work and represents their interpretation of the #
#song. You may only use this file for private study, scholarship, or research. #
#------------------------------------------------------------------------------#

Title: Choke
Artist: Cauterize
Album: 

Instrument: 4 String Bass

Tabbed by: Trevor Kelba (tak_kel@hotmail.com)

Tuning: Standard (E A D G)

This song is tabbed note for note, there is no "x2" or "repeat" if you follow the tab,
it goes along with the song

There is a two bar guitar intro, then the bass starts:

G|------------------||------------------||
D|------------------||------------------||
A|--1--1------3--3--||--5--5------8--8--||
E|------------------||------------------||

G|------------------||------------------||
D|------------------||------------------||
A|--1--1------3--3--||--5--5------8--8--||
E|------------------||------------------||


G|------------------||------------------||
D|------------------||------------------||
A|11111111--33333333||55555555--88888888||
E|------------------||------------------||


G|------------------|
D|------------------|
A|11111111--33333333|
E|------------------|

G|----------------------------------||
D|----------------------------------||
A|--8-8-8-8-8-8-8-8-8-8-8-8---------||
E|--------------------------8-------||

Verse:

G|-------------------------------------------------||
D|12-12-14-14-15-15-14-14-17-17-15-15-14-14-15-15--||
A|-------------------------------------------------||
E|-------------------------------------------------||


G|--------------------------------------------------||
D|-10-10-12-12-14-14-12-12-15-15-14-14-12-12-14-14--||
A|--------------------------------------------------||
E|--------------------------------------------------||

G|-------------------------------------------------||
D|12-12-14-14-15-15-14-14-17-17-15-15-14-14-15-15--||
A|-------------------------------------------------||
E|-------------------------------------------------||

G|--------------------------------------------------||
D|-10-10-12-12-14-14-12-12-x-x-14-14-12-12-14-14----||
A|--------------------------------------------------||
E|--------------------------------------------------||

Pre-Chorus



G|-------------------||-------------------||
D|-------------------||-------------------||
A|-5-55555555555555--||-3-33333333333333--||
E|-------------------||-------------------||

G|-------------------||-------------------||
D|-------------------||-------------------||
A|-5-55555555555555--||-3-33333333333333--||
E|-------------------||-------------------||

Chorus


G|------------------||------------------||
D|------------------||------------------||
A|--1--1-1---3--3-3-||--5--5-5---8--8-8-||
E|------------------||------------------||

G|------------------||------------------||
D|------------------||------------------||
A|--1--1-1---3--3-3-||--5--5-5---8--8-8-||
E|------------------||------------------||

G|------------------|----------------------------------|
D|------------------|----------------------------------|
A|--1--1-1---3--3-3-|-88888888888888888888888888888888-|
E|------------------|----------------------------------|

G|------------------||------------------||
D|------------------||------------------||
A|--1--1--1--1------||--3--3--3--3------||
E|------------------||------------------||


G|------------------------------------||
D|------------------------------------||
A|-88888888888888888888888888888888---||
E|------------------------------------||

G|------------------||------------------||
D|------------------||------------------||
A|--1--1--1--1------||--3--3--3--3------||
E|------------------||------------------||


G|--------------------||
D|--------------------||
A|--8----7----5----3--||
E|--------------------||


Intro: (Pretty Much Repeat the whole 1s part)
G|------------------||------------------||
D|------------------||------------------||
A|--1--1------3--3--||--5--5------8--8--||
E|------------------||------------------||

G|------------------||------------------||
D|------------------||------------------||
A|--1--1------3--3--||--5--5------8--8--||
E|------------------||------------------||


G|------------------||------------------||
D|------------------||------------------||
A|11111111--33333333||55555555--88888888||
E|------------------||------------------||


G|------------------|
D|------------------|
A|11111111--33333333|
E|------------------|
[ Tab from: http://www.guitartabs.cc/tabs/c/cauterize/choke_btab.html ]
G|----------------------------------||
D|----------------------------------||
A|--8-8-8-8-8-8-8-8-8-8-8-8---------||
E|--------------------------8-------||

Verse:

G|-------------------------------------------------||
D|12-12-14-14-15-15-14-14-17-17-15-15-14-14-15-15--||
A|-------------------------------------------------||
E|-------------------------------------------------||


G|--------------------------------------------------||
D|-10-10-12-12-14-14-12-12-15-15-14-14-12-12-14-14--||
A|--------------------------------------------------||
E|--------------------------------------------------||

G|-------------------------------------------------||
D|12-12-14-14-15-15-14-14-17-17-15-15-14-14-15-15--||
A|-------------------------------------------------||
E|-------------------------------------------------||

G|--------------------------------------------------||
D|-10-10-12-12-14-14-12-12-x-x-14-14-12-12-14-14----||
A|--------------------------------------------------||
E|--------------------------------------------------||

Pre-Chorus



G|-------------------||-------------------||
D|-------------------||-------------------||
A|-5-55555555555555--||-3-33333333333333--||
E|-------------------||-------------------||

G|-------------------||-------------------||
D|-------------------||-------------------||
A|-5-55555555555555--||-3-33333333333333--||
E|-------------------||-------------------||

Chorus


G|------------------||------------------||
D|------------------||------------------||
A|--1--1-1---3--3-3-||--5--5-5---8--8-8-||
E|------------------||------------------||

G|------------------||------------------||
D|------------------||------------------||
A|--1--1-1---3--3-3-||--5--5-5---8--8-8-||
E|------------------||------------------||

G|------------------|----------------------------------|
D|------------------|----------------------------------|
A|--1--1-1---3--3-3-|-88888888888888888888888888888888-|
E|------------------|----------------------------------|

G|------------------||------------------||
D|------------------||------------------||
A|--1--1--1--1------||--3--3--3--3------||
E|------------------||------------------||


G|------------------------------------||
D|------------------------------------||
A|-88888888888888888888888888888888---||
E|------------------------------------||

G|------------------||------------------||
D|------------------||------------------||
A|--1--1--1--1------||--3--3--3--3------||
E|------------------||------------------||

G|-------------------------|
D|-------------------------|
A|--8----7----5----3----5--|
E|-------------------------|

Interlude:(awesome bass solo)

G|-----------------|
D|-----------------|
A|--1----3----5----|
E|-----------------|

G|--------------------|
D|--------------------|
A|--1----3----5/17----|
E|--------------------|

G|-----------------|
D|-----------------|
A|--1----3----5----|
E|-----------------|

G|------------|
D|------------|
A|--1----3----|
E|------------|

Note("x's" are when the guitar and the bass drum come in)

G|-------------------------------------------------||
D|--x-x-14-14-15-15-14-14--x-x-14-14-15-15-14-14---||
A|-------------------------------------------------||
E|-------------------------------------------------||

G|-------------------------------------------------||
D|--x-x-15-15-14-14-10-10--x-x-17-17-15-15-14-14---||
A|-------------------------------------------------||
E|-------------------------------------------------||

G|-------------------------------------------------||
D|--x-x-14-14-15-15-14-14--x-x-14-14-15-15-14-14---||
A|-------------------------------------------------||
E|-------------------------------------------------||

G|-------------------------------------------------||
D|--x-x-15-15-14-14-10-10--x-x-17-17-15-15-14-14---||
A|-------------------------------------------------||
E|-------------------------------------------------||


G|-------------------||---------------------||
D|-------------------||---------------------||
A|-5-5-555-555-555-5-||-1-1-111-1-3-3-333-3-||
E|-------------------||---------------------||

G|-------------------||---------------------||
D|-------------------||---------------------||
A|-5-5-555-555-555-5-||-1-1-111-1-3---------||
E|-------------------||---------------------||

G|-------------------||---------------------||
D|-------------------||---------------------||
A|-5-5-555-555-555-5-||-1-1-111-1-3-3-333-3-||
E|-------------------||---------------------||

G|-------------------||---------------------||
D|-------------------||---------------------||
A|-5-5-555-555-555-5-||-1-1-111-1-3-3-333-3-||
E|-------------------||---------------------||
Comments