Cause - Senseless Chords & Tabs

 

Senseless Chords & Tabs

Cause Chords & Tabs

Version: 1 Type: Bass Tab 0 ratings
1 star 2 stars 3 stars 4 stars 5 stars
comments

Senseless Bass Tab

BAND:The Cause
SONG:"Senseless"
ALBUM:On My Own
WRITTEN BY:Dennis Hammond, James Wadley, Michael Grimes
TUNING:Standard

PICK-TAP:X

[-7-7-9----------------------------------] INTRO
[-------9-7---7-----7-9-7----------------]
[-----------8---8-7-------8--------------]
[---------------------------0000---------]
[
[-8-7------------7-8-XX-7-7-9-10---------]
[----8-7-----7-8-------------------------]
[--------8-7-----------------------------]
[-------------------------------XXX--0000]

[----------------------------------------] RIFF 1 [2x]
[----------------------------------------]
[----------------------------------------]  
[---7-7-9-10-----7-7-9-10-9--------------]

[----------------------------------------] RIFF 2 [3X]
[----------------------------------------]
[----------------------------------------]
[--7-7-9-10-9-9-7------------------------]

[----------------------------------------] RIFF 3
[----------------------------------------]
[----------------------------------------]
[--------7-9-10-9-7----------------------]

[-------------------------7-7-9-10-9-7---] VERSE 1
[------------------7-7-9-10--------------]
[-------7-7-9-10-9-7---------------------]
[7-7-9-10--------------------------------]
[
[----------------------------------------]
[------------7-7-9-10--------------------]
[--7-9-10-9-7---------7-7-9-10-9-7-------]
[----------------------------------------]
[
[7-7-9-10--------------------------------]
[-------7-7-9-10-9-7---------------------]
[------------------7-7-9-10--------------]
[-------------------------7-7-9-10-9-7---]

[----------------------------------------] RIFF 2 [3X]
[----------------------------------------]
[----------------------------------------]
[--7-7-9-10-9-9-7------------------------]
[ Tab from: http://www.guitartabs.cc/tabs/c/cause/senseless_btab.html ]
[----------------------------------------] RIFF 3
[----------------------------------------]
[----------------------------------------]
[--------7-9-10-9-7----------------------]

[----------------------------------------] CHORUS [4X]
[----------------------------------------] 
[----------------------------------------]
[-----55555555555-77777777777------------]

[----------------------------------------] RIFF 2 [3X]
[----------------------------------------]
[----------------------------------------]
[--7-7-9-10-9-9-7------------------------]

[----------------------------------------] RIFF 3
[----------------------------------------]
[----------------------------------------]
[--------7-9-10-9-7----------------------]

[-------------------------7-7-9-10-9-7---] VERSE 2
[------------------7-7-9-10--------------]
[-------7-7-9-10-9-7---------------------]
[7-7-9-10--------------------------------]

[----------------------------------------]
[------------7-7-9-10--------------------]
[--7-9-10-9-7---------7-7-9-10-9-7-------]
[----------------------------------------]

[7-7-9-10--------------------------------]
[-------7-7-9-10-9-7---------------------]
[------------------7-7-9-10--------------]
[-------------------------7-7-9-10-9-7---]

[----------------------------------------] RIFF 2 [3X]
[----------------------------------------]
[----------------------------------------]
[--7-7-9-10-9-9-7------------------------]

[----------------------------------------] RIFF 3
[----------------------------------------]
[----------------------------------------]
[--------7-9-10-9-7----------------------]

[----------------------------------------] CHORUS [4X]
[----------------------------------------] 
[----------------------------------------]
[-----55555555555-77777777777------------]


[----------------------------7-7-9-10-9-7] OUTRO [REPEAT]
[--------------------7-7-9-10------------]
[--------7-7-9-10-9-7--------------------]
[7-7-9-10--------------------------------]
Comments