Cause - Lies Chords & Tabs

 

Lies Chords & Tabs

Cause Chords & Tabs

Version: 1 Type: Bass Tab 0 ratings
1 star 2 stars 3 stars 4 stars 5 stars
comments

Lies Bass Tab

BAND-The Cause
SONG-"Lies"
ALBUM-On My Own
WRITTEN BY-James Wadley
TUNNING-Standard

PALM MUTE-:
PICK TAP-X


[---------------------------------] INTRO 4X
[---------------------------------]
[---------------------------------]
[-1---1---1---1---3---3---3---3---]

[------------------------------------]CHORUS 5X
[------------------------------------]
[------------------------------------]
[-11X11X11X11X1111--33X33X33X33X3333-]

[------5-5-----5-5-----5-5-----5-5---]VERSE
[--5-5-----5-5-----5-5-----5-5-------]
[------------------------------------]
[------------------------------------]
[ Tab from: http://www.guitartabs.cc/tabs/c/cause/lies_btab.html ]
[------------------------------------]CHORUS 5X
[------------------------------------]
[------------------------------------]
[-11X11X11X11X1111--33X33X33X33X3333-]

[------5-5-----5-5-----5-5-----5-5---]VERSE
[--5-5-----5-5-----5-5-----5-5-------]
[------------------------------------]
[------------------------------------]

[------------------------------------]CHORUS 5X
[------------------------------------]
[------------------------------------]
[-11X11X11X11X1111--33X33X33X33X3333-]

[------------------------------------]INTERLUDE 2X
[------------------------------------]
[------------------------------------]
[-----------11-11---33-33------------]
            :: ::   :: ::

[------------------------------------]CHORUS 7X
[------------------------------------]
[------------------------------------]
[-11X11X11X11X1111--33X33X33X33X3333-]
Comments