Cattle Decapitation - Longpig Chet And The Hairless Goat Chords & Tabs

 

Longpig Chet And The Hairless Goat Chords & Tabs

Cattle Decapitation Chords & Tabs

Version: 1 Type: Tab 0 ratings
1 star 2 stars 3 stars 4 stars 5 stars
comments

Longpig Chet And The Hairless Goat Tab

  
              Cattle Decapitation - "Long-Pig Chet and the Hairless Goat"
                     From the Album To Serve Man
                   Version 1.0 - April 2004

Transcribed by: Brad "DOC" Shanler

For Questions, Comments, Newest Version, or Corrections contact
Brad@ deadwait666@yahoo.com
ah - artificial harmonic

Tune Gtr to Eb


Riff 1a
|-----------------------------------------------------|
|-----------------------------------------------------|
|--5-4------------------------------------------------|
|--5-4-5-7-8-7-5-7------------------------------------|
|--3-2-5-7-8-7-5-7------------------------------------|
|------3-5-6-5-3-5--0-0-0-0-0-0-0-0-0-0-0-0-0-0-0-0---|

Riff 1b
|------------------------------------------|
|------------------------------------------|
|--5-4-------------------------------------|
|------5-7-8-7-5-7-------------------------|
|-----------------------------2---------2--|
|--------------------0-0-0-0--0--0-0-0--0--|

Riff 2a
|-------------------------------------------|
|-------------------------------------------|
|-------------------------------------------|
|-------------------------------------------|
|-------------------------------------------|
|--3-3-3-3-6-6-2-2-2-2-3-3-3-3-6-6-1-1-1-1--|
[ Tab from: http://www.guitartabs.cc/tabs/c/cattle_decapitation/longpig_chet_and_the_hairless_goat_tab.html ]
Riff 2b
|-------------------------------------------|
|-------------------------------------------|
|-------------------------------------------|
|-------------------------------------------|
|--5-5-5-5-8-8-4-4-4-4-5-5-5-5-8-8-3-3-3-3--|
|-------------------------------------------|

Riff 2c
|-----------------------------------------------|
|-----------------------------------------------|
|-----------------------------------------------|
|--7-7-7-7-10-10-6-6-6-6-7-7-7-7-10-10-5-5-5-5--|
|-----------------------------------------------|
|-----------------------------------------------|

Riff 3a
|-----------------------|--------------------------|
|-----------------------|--------------------------|
|-----------------------|--------------------------|
|-----------------------|--------------------------|
|--7-7-7-7-6-6-4-4-4-4--|--7-----6-----5-----4-----|
|-----------------------|-----8-----7-----6-----5--|
                          ah    ah    ah    ah

Riff 3b
|---------------------|-------------------------|
|---------------------|-------------------------|
|-9-9-9-9-8-8-6-6-6-6-|-------------------------|
|---------------------|-9------8-----7-----6----|
|---------------------|-7--10--6--9--5--8--4--7-|
|---------------------|----8------7-----6-----5-|

Riff 3c
|---------------------------------------------------|
|---------------------------------------------------|
|-9-9-9-9-------8-8-8-8-----7-7-7-7-----6-6-6-6-----|
|---------10-10---------9-9---------8-8---------7-7-|
|---------------------------------------------------|
|---------------------------------------------------|

Song structure would be way to long to put here.

Comments