Cathedral - Soul Sacrifice Chords & Tabs

 

Soul Sacrifice Chords & Tabs

Cathedral Chords & Tabs

Version: 3 Type: Tab 0 ratings
1 star 2 stars 3 stars 4 stars 5 stars
comments

Soul Sacrifice Tab

soul sacrifice
                            
by Cathedral

from the fabulous '91 album 'forest of equilibrium'

transcribed by Christian Reindel(creindel@gmx.de) 
any questions or corrections- e-mail me

Tune down to B (2.5 steps) 


 ~         bend the note normal

 ~~~~~     bend the note rapidly

 tr~~      use tremolo


   Intro  
B |-----------------------------------------------------------|
F#|-----------------------------------------------------------|
D |-----------------------------------------------------------|
A |--8tr~~~---5tr~~-------------------------------------------|
E |------------------8tr~~~~---5tr~~~-------------------------|
B |------------------------------------8tr~~~---5tr~~~--3tr~~~|
 
Riff 1 - 2 times - tortured self worth...
 
              3x                           1x
B |-----------------------------|-----------------------|
F#|-----------------------------|-----------------------|
D |-----------------------------|-----------------------|
A |-----------------------------|-------6~~~-------3~~~-|
E |-2-2-2-2-2-2-2-2-2-2-2-2--6--|--2-2--------2-2-------|
B |-0-0-0-0-0-0-0-0-0-0-0-0--4--|--0-0--------0-0-------|


Riff 2 - muted unable to realise images...

              4x                             4x  
B |----------------------------|----------------------------|
F#|----------------------------|----------------------------|
D |----------------------------|----------------------------|
A |----------------------------|--4--------------7-/-9-\-7--|
E |--2~~~--------------5h7-5~~-|--2--4----7-/-9--5-/-7-\-5--|
B |--------2~~~~---5h7---------|-----2----5-/-7-------------|

back to riff 1 - 2 times
than riff 2

   Riff 3 - 4 times
B |-----------------------|
F#|-----------------------|
D |-----------------------|
A |-----------------------|
E |-5-7-7-7-7-5-----------|
B |-------------7-5-7-5~--|

   Riff 4 - 4 times
B |-----------------------|
F#|-----------------------|
D |-----------------------|
A |-----------------------|
E |-7-9-9-9-9-7-----------|
B |-------------9-7-9-7~--|

   Riff 3 - 4 times
B |-----------------------|
F#|-----------------------|
D |-----------------------|
A |-----------------------|
E |-5-7-7-7-7-5-----------|
B |-------------7-5-7-5~--|
[ Tab from: http://www.guitartabs.cc/tabs/c/cathedral/soul_sacrifice_tab_ver_3.html ]
  Riff 5 
B |-------------------------------------------------------------|
F#|-------------------------------------------------------------|
D |--------------------------------------------------4~-4~-4-2~-|
A |-------------------------------------------------------------|
E |-4-4-4-4-4-4-4-4-4-4-4-4-4-4-4-4-4-4-4-4-4-4-4-4-------------|
B |-2-2-2-2-2-2-2-2-2-2-2-2-2-2-2-2-2-2-2-2-2-2-2-2-------------|

B |-------------------------------------------------------------|
F#|-------------------------------------------------------------|
D |-------------------------------------------------------------|
A |----------------------------------------2--2-----------------|
E |-4-4-4-4-4-4-4-4-4-4-4-4-4-4-4-4--2-3-4------4-2-------------|
B |-2-2-2-2-2-2-2-2-2-2-2-2-2-2-2-2-------------------2---------|

B |-------------------------------------------------------------|
F#|-------------------------------------------------------------|
D |--------------------------------------------------4~-4~-4-2~-|
A |-------------------------------------------------------------|
E |-4-4-4-4-4-4-4-4-4-4-4-4-4-4-4-4-4-4-4-4-4-4-4-4-------------|
B |-2-2-2-2-2-2-2-2-2-2-2-2-2-2-2-2-2-2-2-2-2-2-2-2-------------|

B |-------------------------------------------------------------|
F#|-------------------------------------------------------------|
D |-------------------------------------------------------------|
A |----------------------------------------2--2-------4---------|
E |-4-4-4-4-4-4-4-4-4-4-4-4-4-4-4-4--2-3-4------4-2-------------|
B |-2-2-2-2-2-2-2-2-2-2-2-2-2-2-2-2-----------------------------|


Riff 6 - 4 times
B |------------------------------------|
F#|-----5--5--5-7------5---7p5---------|
D |-----5--5--5-7------5---7p5---------|
A |-5h7------------5h7---------7-5-7---|
E |------------------------------------|
B |------------------------------------|


Riff 7 - 2 times with guitarsolo
B |-----------------------------------------------------------|
F#|-----------------------------------------------------------|
D |-----------------------------------------------------------|
A |---4-4----4-4----4-4--5-/-7-----4-4----4-4----4-4--9-\-7---|
E |-0-2-2--0-2-2--0-2-2--3-/-5---0-2-2--0-2-2--0-2-2--7-\-5---|
B |-----------------------------------------------------------|

  ending
B |-----------------------|
F#|-----------------------|
D |-----------------------|
A |-----------------------|
E |-5-7-7-7-7-5-----------|
B |-------------7-5-7-5~--|

end.
Comments