Cathedral - Soul Sacrifice Chords & Tabs

 

Soul Sacrifice Chords & Tabs

Cathedral Chords & Tabs

Version: 2 Type: Tab 0 ratings
1 star 2 stars 3 stars 4 stars 5 stars
comments

Soul Sacrifice Tab

   
#----------------------------------PLEASE NOTE---------------------------------#
#This file is the author's own work and represents their interpretation of the #
#song. You may only use this file for private study, scholarship, or research. #
#------------------------------------------------------------------------------##
#

#----------------------------------PLEASE NOTE---------------------------------#
#This file is the author's own work and represents their interpretation of the #
#song. You may only use this file for private study, scholarship, or research. #
#------------------------------------------------------------------------------#

Date: Sat, 28 Dec 1996 21:22:10 +0000
From: Matt Javes 
Subject: TAB: Soul Sacrifice by Cathedral


                                Soul Sacrifice

                                Cathedral

Well I'm in the mood for tabbing, and a glance through the archives
shows that there's no Cathedral tab available. Until now. I'm tabbing
roughly what I play off the top of my head, and the last time I heard
this song was last October when they played the LA2, so corrections
would be helpful (if not vital).

Tune down to Db/C# (1.5 steps)

tr = trill      ~ = vibrato     h = hammer on   p = pull off
\ = slide

Intro
e|-------------------------------|
B|--tr---tr----------------------|
G|-5-6--3-4---tr---tr------------|
D|-5-6--3-4--5-6--3-4---tr---tr--|
A|-----------5-6--3-4--5-6--3-4--|
E|---------------------5-6--3-4--|

Riff 1
e|----------------------------|--play-once---------|
B|----------------------------|-------tr-------tr--|
G|-----play-three-times-------|------5-6------3-4--|
D|----------------------------|------5-6------3-4--|
A|-2-2-2-2-2-2-2-2-2-2-2-2-5--|-2--2-----2--2------|
E|-0-0-0-0-0-0-0-0-0-0-0-0-3--|-0--0-----0--0------|

Riff 2
e|-------------------------|
B|-------------------------|
G|-------------------------|
D|-5-7-7--5-3-2-10-12-10~--|
A|-5-7-7--5-3-2-10-12-10~--|
E|-------------------------|

Riff 3
e|-----------------|
B|-----------------|
G|-----------------|
D|-----------------|
A|-35555553--------|
E|----------5353~--|
[ Tab from: http://www.guitartabs.cc/tabs/c/cathedral/soul_sacrifice_tab_ver_2.html ]
Riff 4
e|-----------------|
B|-----------------|
G|-----------------|
D|-----------------|
A|-46666664--------|
E|----------6464~--|

Riff 5
e|-------------------------------------|
B|-------------------------------------|
G|-------------------------1414-1412~--|
D|-------------------------------------|
A|-222222222222222222222222------------|
E|-000000000000000000000000------------|

Riff 6a                         Riff 6b
e|-----------------------------|------------------------------|
B|-----------------------------|------------------------------|
G|-----------------------------|------------------------------|
D|-----------------------------|------------------------------|
A|-2222222222222222---5-5------|-2222222222222222---5-5----7--|
E|-0000000000000000567---75~0--|-0000000000000000567---7-5~---|

Riff 7
e|-------------------------------------------|
B|-------------------------------------------|
G|-------------------------------------------|
D|--h----10--10--1012---h----10--108810~10~--|
A|-8-10--10--10--1012--8-10--10--108810~10~--|
E|-----00--00--00----------00--00------------|

Solo (very roughly)
e|-14p13p12-14p13p12-14p13p12-14p13p12-|
B|-------------------------------------|
G|-------------------------------------|
D|-------------------------------------|
A|-------------------------------------|
E|-------------------------------------|

e|-14-12----14-12-----------------------------------------|
B|-------14-------14-14-----------------------------------|
G|----------------------12\-------------------------------|
D|----------------------12\-scale upwards (sorry, nothing-|
A|---------------------------exact)-----------------------|
E|--------------------------------------------------------|

Outro
e|--------------|
B|--------------|
G|--------------|
D|--------------|
A|-35555553-----|
E|---------53~0-|

Song structure: Intro
                Riff 1 x 2
                Riff 2 x 8
                Riff 1 x 2
                Riff 2 x 8
                Riff 3 x 4
                Riff 4 x 4
                Riff 3 x 4
                Riff 5
                Riff 6a
                Riff 5
                Riff 6b
                Riff 7 x 8 w. solo
                Outro

--
Matt Javes

        matt@redstart.demon.co.uk
Comments