Category 5 - Dreams Chords & Tabs

 

Dreams Chords & Tabs

Category 5 Chords & Tabs

Version: 2 Type: Tab 0 ratings
1 star 2 stars 3 stars 4 stars 5 stars
comments

Dreams Tab

   
Band: Category 5
Song: Dreams
Title:  Nervous and Worried
Tabbed by:  Ryan Brown

Standard Tuning

Intro / Verse (repeat as many times as needed)
e|------------------------------------------------------------------------------------|
B|------------------------------------------------------------------------------------|
G|------------------------------------------------------------------------------------|
D|----------7-------------------------------------------------------------------------|
A|----5-----5----7-----10-------------------------------------------------------------|
E|----3----------5-----8--------------------------------------------------------------|
     (G)   (D)  (A)   (C)

    Verse  (X's are palm muted)
e|----------------------------------------------------------------------------------|
B|----------------------------------------------------------------------------------|
G|----------------------------------------------------------------------------------|
D|----------------------------------7-x-x-x-x-x-x-x-x-x-x-x-x-x-x-------------------|
A|----5-x-x-x-x-x-x-x-x-x-x-x-x-x---5-x-x-x-x-x-x-x-x-x-x-x-x-x-x-------------------|
E|----3-x-x-x-x-x-x-x-x-x-x-x-x-x---------------------------------------------------|
     (G)                           (D)
[ Tab from: http://www.guitartabs.cc/tabs/c/category_5/dreams_tab_ver_2.html ]
e|----------------------------------------------------------------------------------|
B|----------------------------------------------------------------------------------|
G|----------------------------------------------------------------------------------|
D|----------------------------------------------------------------------------------|
A|----7-x-x-x-x-x-x-x-x-x-x-x-x-x-----10-x-x-x-x-x-x-x-x-x-x-x-x-x-x----------------|
E|----5-x-x-x-x-x-x-x-x-x-x-x-x-x-----8--x-x-x-x-x-x-x-x-x-x-x-x-x-x----------------|
     (A)                             (C)


Solo Part: w/ distortion
e|---------------------------------------------------------------------------------|
B|---------------------------------------------------------------------------------|
G|---------------------------------------------------------------------------------|
D|---------------7-------4--4--5--7------------------------------------------------|
A|---5-----------5-------------------------7----------9-------9-9--77--------------|
E|---3-------------------------------------5----------7----------------------------|


e|---------------------------------------------------------------------------------|
B|---------------------------------------------------------------------------------|
G|---------------------------------------------------------------------------------|
D|------------44-5--4--0------7-------4-4--5--7----------4-4--5-4--4--5--4---------|
A|------5---------------------5---------------------7------------------------------|
E|------3-------------------------------------------5------------------------------|


e|---------------------------------------------------------------------------------|
B|---------------------------------------------------------------------------------|
G|---------------------------------------------------------------------------------|
D|---------------------------------------------------------------------------------|
A|-------9-------9--9--7--7--------------------------------------------------------|
E|-------7-------------------------------------------------------------------------|

Go back to verses
Comments