Catchpole - Misunderstood Chords & Tabs

 

Misunderstood Chords & Tabs

Catchpole Chords & Tabs

Version: 1 Type: Bass Tab 0 ratings
1 star 2 stars 3 stars 4 stars 5 stars
comments

Misunderstood Bass Tab

I'm sure this is right!



Intro (x2)
g-------------------------------------------------------------------
d-----0---------------0-----------------------------------------------
a---2---2-0-2-2---0h2---2----------------------------------------------------
e---------------3----------------------------------------------------


Verse
g-------------------------------------------------------------------
d--------------------0-------0---------------0-------------------------
a--2-5-2---2-5-2---2---2-0-2---2-0-2-2---0h2---2-------------------------------------
e--------5-------5---------------------3-------------------------------

[ Tab from: http://www.guitartabs.cc/tabs/c/catchpole/misunderstood_btab.html ]
Chorus(x2)
g-------------------------------------------------------------------
d------4h5h4-------------------------------------------------------------
a--5-5-----------4h5h4-----------------------------------------------------
e------------5-5-------3-0-3-0-3-0-3-0-3-5--------------------------------------


Bridge(x2)
g-------------------------------------------------------------------
d--------------------0---------------0--------------------------------
a--2-2-0-0-2-2-0-0-2---2-2-0-0-2-0-2-------------------------------------------------
e-------------------------------------------------------------------

www.catchpolemusic.com
Comments