Catchpole - Bother Me Chords & Tabs

 

Bother Me Chords & Tabs

Catchpole Chords & Tabs

Version: 1 Type: Bass Tab 0 ratings
1 star 2 stars 3 stars 4 stars 5 stars
comments

Bother Me Bass Tab

BOTHER ME by CATCHPOLE!

This is such a simple song and good for the beginning bass player give it
a try! Go to CatchPolemusic.com for more info!


INTRO(x2)
g--------------------------------------------------------2-----------
d---------------------0-2-4-2-0------------------0-2-4-5---5-4-------------------
a-5-5-5-2-2-2-5---0-2------------5-5-5-2-2-2-5----------------------------------------
e-------------------------------------------------------------------


Verse(x4)
g-------------------------------------------------------------------
d-------------------------------------------------------------------
a-5-5-5-5-5-5-5-5-5-5--2-2-2-2-2-2-2-2-2-2-----------------------------------
e-------------------------------------------------------------------

[ Tab from: http://www.guitartabs.cc/tabs/c/catchpole/bother_me_btab.html ]
Intro to chorus
g-------------------------------------------------------------------
d-------------------------------------------------------------------
a--------------2-2-2-2-2-2--5-5-5-5-5-2-2-2-2-2-5-------------------------------------
e--5-5-5-5-5-5------------------------------------------------------------


Chorus
g-------------------------------------------------------------------
d--------------------------------7-----4-------------------------------
a-5-5-5-2-2------------------5-5---5-2---2----5-------7-----5-5-5-2-2-----------------
e-----------3-3-3-3-5-5-5-5-----------------3---3-3-5---5-5------------------------

-------------------------------------------------
-------------------------------------------------
-------------------------------------------------
-3-3-3-3-5-5-5-5---------------------------------


Intro to 2nd verse
g-------------------------------------------------------------------
d----------------------------0-2-4-2-0------------------------0-2-4--
a-5-5-5-5-5-2-2-2-2-2-5--0-2------------5-5-5-5-5-2-2-2-2-2-5-------
e-------------------------------------------------------------------

0-2-0-4-------------------------
---------------------------------
---------------------------------
---------------------------------
Comments