Catch 22 - Kristina Chords & Tabs

 

Kristina Chords & Tabs

Catch 22 Chords & Tabs

Version: 1 Type: Tab 0 ratings
1 star 2 stars 3 stars 4 stars 5 stars
comments

Kristina Tab

KRISTINA SHE DON'T KNOW I EXIST (Solo) - Catch 22

By: Sausalito7@aol.com

e|-----------------------------------------------------------------------------|
B|----------------15-------------------------------15--------------------------|
G|----------------------14-------------------14-16--------------------14-16----|
D|-------9h10p9------17-------------9h10p9---------------12-10p9h10---------17-|
A|-10h12--------9-------------10h12--------9------------------------9----------|
E|-----------------------------------------------------------------------------|
[ Tab from: http://www.guitartabs.cc/tabs/c/catch_22/kristina_tab.html ]
e|---------------------------------------------------------------------------|
B|-12--11-12\\----12--11-12\\----12-------15-17-15--------12--15-------------|
G|-12--11-12\\----12--11-12\\----12-14h16----------16-14--12--14-------------|
D|---------------------------------------------------------------------------|
A|---------------------------------------------------------------------------|
E|---------------------------------------------------------------------------|

e|----15---------------------15----15-14-------------------------------------|
B|-12-----17-15-----------15-------------17-15-----------------12\\----------|
G|-12------------16-15h16----------------------17-16-14h16p14--12\\----------|
D|---------------------------------------------------------------------------|
A|---------------------------------------------------------------------------|
E|---------------------------------------------------------------------------|
Comments